Patent Pending - One Less Heart To Break Chords & Tabs

 

One Less Heart To Break Chords & Tabs

Patent Pending Chords & Tabs

Version: 1 Type: Bass Tab 0 ratings
1 star 2 stars 3 stars 4 stars 5 stars
comments

One Less Heart To Break Bass Tab

   
Song: One Less Heart To Break
Artist: Patent Pending
Tabber: IanSaysRawr
Tuning: Standard [E A D G B E]


(Guitar Intro)

Pre-chorus
|------------------------------------|
|------------------------------------|
|------------------------------------| x2
|--2-22222222222222-0-00000000000000-|

Chorus
|-----------------------------------------------------------------|
|-----------------------------------------------------------------|
|-----------------------------------------------------------------| x2
|--7-7-7-7-77-7-7--0-0-0-0-00-0-0--4-4-4-4-44-4-4--0-0-0-0-00-0-0-|

Post-chorus
|--------------------|
|--------------------|
|-4444444466666666---|
|-----------------0~-|
[ Tab from: http://www.guitartabs.cc/tabs/p/patent_pending/one_less_heart_to_break_btab.html ]
Verse
|-----------------------------|
|-----------------------------|
|-----------------------------| x2
|-000--0-00-024--777--444-222-|

Pre-chorus

Chorus

Post-chorus
|----------------------------|
|----------------------------|
|-4444444466666666-----------|
|-----------------0~0~0~0~0~-|

Bridge
|------------------------------|
|------------------------------|
|------------------------------| x2
|-000--0-00-000--444--4-44--47-|

Post-chorus

Snare Break
|-------------------xx-|
|-------------------xx-|
|-------------------xx-|
|--7~~-0~~-4~~-0~~--xx-|

Chorus
|-----------------------------------------------------------------|
|-----------------------------------------------------------------|
|-----------------------------------------------------------------| x2
|--7-7-7-7-77-7-7--0-0-0-0-00-0-0--4-4-4-4-44-4-4--0-0-0-0-00-0-0-|

|----------------------|
|----------------------|
|-4444444466666666-----|
|-----------------0~~~-|
Comments