Patent Pending - Love Struck Mess Chords & Tabs

 

Love Struck Mess Chords & Tabs

Patent Pending Chords & Tabs

Version: 1 Type: Tab 0 ratings
1 star 2 stars 3 stars 4 stars 5 stars
comments

Love Struck Mess Tab

Intro
e|--------------------------------------------------------------|-----|
B|--------------------------------------------------------------|-----|
G|--------------------------------------------------------------|-----|
D|-777-4-5-7-5-4--777------------555------------777-------------|-2X--|
A|-555------------777-4-5-7-5-4--555-2-3-5-3-2--777-4-5-7-5-4---|-----|
E|----------------555------------333------------555-------------|-----|


[ Tab from: http://www.guitartabs.cc/tabs/p/patent_pending/love_struck_mess_tab.html ]
Verse
e|---------------------------------------------------|
B|---------------------------------------------------|
G|-77-7--77-7----------------------------------------|
D|-77-7--77-7--77-7--77-7--55-5--55-5--77-7--77-7----|
A|-55-5--55-5--77-7--77-7--55-5--55-5--77-7--77-7----|
E|-------------55-5--55-5--33-3--33-3--55-5--55-5----|
   ..    ..    ..    ..    ..    ..    ..    ..


chorus
e|---------------|
B|---------------|
G|-7-------------|
D|-7--7--5--7----|
A|-5--7--5--7----|
E|----5--3--5----|
Comments