Patent Pending - L-town Shakedown Chords & Tabs

 

L-town Shakedown Chords & Tabs

Patent Pending Chords & Tabs

Version: 1 Type: Bass Tab 0 ratings
1 star 2 stars 3 stars 4 stars 5 stars
comments

L-town Shakedown Bass Tab

   
-------------------------------------------------------------------------------
		        L-town Shakedown - Patent Pending
-------------------------------------------------------------------------------

Tabbed By : Biehayn
e-mail: Eddieb219@yahoo.com

Tuning: Standard

Start at 2:07
Chorus: 2x
G|---------------------------------------------------------------------------|
D|00000----------------------------------------------------------------------|
A|------------------------------------0-0-0-0-0-0-0-0------------------------|
E|----------3-3-3-3-3-3-3-3-00000--------------------------------------------|

Verse: 2x
G|---------------------------------------------------------------------------|
D|0-0-0-0-0-0-0-0------------------------------------------------------------|
A|------------------------------------------------0-0-0-0-0-0-0-0------------|
E|----------------3-3-3-3-3-3-3-3-0-0-0-0-0-0-0-0----------------------------|
[ Tab from: http://www.guitartabs.cc/tabs/p/patent_pending/l_town_shakedown_btab.html ]
Prechorus: 2x
G|---------------------------------------------------------------------------|
D|0-0-0-0--------------------------------------------------------------------|
A|------------------------0-0-0-0--------------------------------------------|
E|--------3-3-3-3-0-0-0-0----------------------------------------------------|

Chorus: 6x                        3rd time:
G|--------------------------------|------------------------------------------|
D|0-0-0-0-------------------------|0-0-0-0-----------------------------------|
A|------------------------0-0-0-0-|---------------------0-0-0-0--------------|
E|--------3-3-3-3-0-0-0-0---------|--------3----0-0-0-0----------------------|

Outro:
G|---------------------------------------------------------------------------|
D|0~~~~~~~~---0~~~~~~~~--0---------------------------------------------------|
A|---------------------------------------------------------------------------|
E|---------------------------------------------------------------------------|

Really Simple Song

| /  slide up
| \  slide down
| h  hammer-on
| p  pull-off
| ~  vibrato
| +  harmonic
| x  Mute note
===============================================================================
Comments