Patent Pending - Demo For Dayna Chords & Tabs

 

Demo For Dayna Chords & Tabs

Patent Pending Chords & Tabs

Version: 1 Type: Tab 0 ratings
1 star 2 stars 3 stars 4 stars 5 stars
comments

Demo For Dayna Tab

e--------------------------------------------------------------|
B--------------------------------------------------------------|
G--------------------------------------------------------------|
D-6/7--6-------------------------------------------------------|
A---------7------7------7-----7-----7-----7-----7-----7-----7--|
E------------0-0----0-0---0-0---0-0---0-0---0-0---0-0---0-0----|

e--------------------------------------------------------------|
B--------------------------------------------------------------|
G--------------------------------------------------------------|
D--------------------------------------------------------------|
A-----7-----7-----7-----7---(do that 8X)-----------------------|
E-5-5---6-6---7-7---0-0----------------------------------------|
[ Tab from: http://www.guitartabs.cc/tabs/p/patent_pending/demo_for_dayna_tab.html ]
Comments