Pat Metheny - A Map Of The World Chords & Tabs

 

A Map Of The World Chords & Tabs

Pat Metheny Chords & Tabs

Version: 1 Type: Tab 0 ratings
1 star 2 stars 3 stars 4 stars 5 stars
comments

A Map Of The World Tab

Title: A Map Of the World
Album: A Map Of the World
Artist: Pat Metheny

Transcribed by Majes 

This is tab for intro of Pat Matheny's song A Map Of the World. 
I'm not sure but i think Pat is playing this on a soprano guitar 
(tuning:low to high ADGCEA).
I tabbed it on normal tuning but if anyone want to try on soprano 
tuning just put capo on 5 fret.

Its not note to note but it should be a good starting point
 
                                            
e-|---5------5------5--------5--------5--------5------------------------
B-|-----8------8------8--------8--------8--------8----------------------
G-|-------7------7------7--------7--------7--------7--------------------
D-|------------------------5--------5--------5--------------------------
A-|---------------------------------------------------------------------
E-|---------------------------------------------------------------------
                                         
[ Tab from: http://www.guitartabs.cc/tabs/p/pat_metheny/a_map_of_the_world_tab.html ]
e-|---5------5------5------5--------5--------5--------5--------5--------
B-|-----8------8------8------8--------8--------8--------8--------8------
G-|-------7------7------7------7--------7--------7--------7--------7----
D-|-------------------------------5--------5--------5--------5----------
A-|---------------------------------------------------------------------
E-|---------------------------------------------------------------------

e-|---------------------------------------------------------------------
B-|---------------------------------------------------------------------
G-|--------0----------------------------12-11-7---9-7---9-9-9---9-------
D-|--5-4-2---4-5-s7---10-9-7--5-7-9-------------5-----9-------9---------
A-|-----------------5---------------10----------------------------5-7---
E-|---------------------------------------------------------------------

e-|---------------------------------------------------------------------
B-|---------------------------------------------------------------------
G-|----9-9-9--9--------9-9-9---9----------------------------------------
D-|--9-------9-------9-------9------------------------------------------
A-|-------------5-7-----------------------------------------------------
E-|---------------------------------------------------------------------

Ok this is as far as i was to get in this song but maybe i will be able 
to do the rest someday somehow. Bye.

Well, if you have any comments or corrections, please let me know.
(Majes_45@pf.pl)Don't be too harsh this is my first tab i'm puting 
on the net.
Comments