Pat Mcgee Band - Girl From Athens Chords & Tabs

 

Girl From Athens Chords & Tabs

Pat Mcgee Band Chords & Tabs

Version: 1 Type: Tab 0 ratings
1 star 2 stars 3 stars 4 stars 5 stars
comments

Girl From Athens Tab

   
Intro

Guitar 1

e-------------------------------5--------------------|
B-2-----------------------------0--2-----------------|
G-2---0-----7--6--7--6----------2---0-----7--6--7--6-|
D-2-/-5---7-7--7--7--7----------2-/-5--7--7--7--7--7-|
A----------------------------------------------------|
E----------------------------------------------------|

Guitar 2

e-----------5------------------------|
B--3-/-5-------3-/-5------3--5--5--3-|
G----------------------2-------------|
D------------------------------------|
A------------------------------------|
E------------------------------------|
[ Tab from: http://www.guitartabs.cc/tabs/p/pat_mcgee_band/girl_from_athens_tab.html ]
e--7-/-5---3------------------------------------|
B--------------7-/-5----------------------------|
G----------------------2---------7--9--11--9--7-|
D-------------------------5-/-7-----------------|
A-----------------------------------------------|
E-----------------------------------------------|

e--------------------------------------------------|
B--------------------------------------------------|
G----7--9-----7--7--7--7--9--11--9--------7--9--7--|
D-7--------7------------------------7--7-----------|
A--------------------------------------------------|
E--------------------------------------------------|

Verses

Chord Progression:  D  A  G

Chorus

Chord Progression:  D A G D A G Bm A G Bm A G

Bridge

Chord Progression:  A  D
Comments