Pat Benatar - Hit Me With Your Best Shot Chords & Tabs

 

Hit Me With Your Best Shot Chords & Tabs

Pat Benatar Chords & Tabs

Version: 5 Type: Tab 0 ratings
1 star 2 stars 3 stars 4 stars 5 stars
comments

Hit Me With Your Best Shot Tab

tabbed by: zep123
email: zepman74@yahoo.com




e----------------------|
b----------------------|
g----------------------|
f----------------------|
a-6--9-9--12-12--11-11-|
e-4--7-7--10-10--9--9--| 

[ Tab from: http://www.guitartabs.cc/tabs/p/pat_benatar/hit_me_with_your_best_shot_tab_ver_5.html ]
e------------------------------|
b------------------------------|
g------------------------------|
f------------------------------|
a-6--9-9--12-12-11-11-9-9-11-11|
e-4--7-7--10-10-9--9--7-7-9--9-| 



e----------------------|
b----------------------|
g----------------------|
f----------------------|
a-6--9-9--12-12--11-11-|
e-4--7-7--10-10--9--9--| 


e------------------------------|
b------------------------------|
g------------------------------|
f------------------------------|
a-6--9-9--12-12-11-11-9-9-11-11|
e-4--7-7--10-10-9--9--7-7-9--9-|
Comments