Pat Benatar - Hit Me With Your Best Shot Chords & Tabs

 

Hit Me With Your Best Shot Chords & Tabs

Pat Benatar Chords & Tabs

Version: 3 Type: Tab 0 ratings
1 star 2 stars 3 stars 4 stars 5 stars
comments

Hit Me With Your Best Shot Tab

Artist - Pat benatar
Song - Hit me with you're best shot
Tabbed by - Noodlez



Standard tuning     EADGBe


Intro + Chorus
[ Tab from: http://www.guitartabs.cc/tabs/p/pat_benatar/hit_me_with_your_best_shot_tab_ver_3.html ]
e|------------------------|------------------------------------|
B|------------------------|------------------------------------|
G|--9---------6-6---------|--9---------6-6--4-4----------------|
D|--9---7-7---6-6---9-9---|--9---7-7---6-6--4-4--7-7--9-9------|
A|--7---7-7---4-4---9-9---|--7---7-7---4-4--2-2--7-7--9-9------|
E|------5-5---------7-7---|------5-5-------------5-5--7-7------|


Verses

e|-----------------------|
B|-----------------------|
G|--9--8--6--------------|
D|--9--8--6---7--9-------|
A|--7--6--4---7--9-------|
E|------------5--7-------|



And basically it's that chords throughout the song except from the solo of course. Enjoy! (",)
Comments