Pat Benatar - Hit Me With Your Best Shot Chords & Tabs

 

Hit Me With Your Best Shot Chords & Tabs

Pat Benatar Chords & Tabs

Version: 1 Type: Bass Tab 0 ratings
1 star 2 stars 3 stars 4 stars 5 stars
comments

Hit Me With Your Best Shot Bass Tab

Artist:Pat Benetar
Song:Hit Me With Your Best Shot
Tabbed By:Gary Hricewich
Email:snapper2001@msn.com
[ Tab from: http://www.guitartabs.cc/tabs/p/pat_benatar/hit_me_with_your_best_shot_btab.html ]
                                                
 Intro+Chorus  
G--------------------|-------------------------|
D--------------------|-------------------------|
A------0-0--4-4--2-2-|----0-0--4-4-2-2-0-0-2-2-|
E---0----------------|-0-----------------------|
                                                
                                          
 Verse 1,2+Solo 
G----------------------------------------|
D----------------------------------------|
A-------6-4---0-2---2-2--2-2-2-2-2-2-2-2-|
E---0------------------------------------|
                                          
                                                                
     Verse 3[After Solo] 
G---|--------------------------------4-----------|-------------|
D---|*---------------------4------4----2--------*|-------------|
A---|*-7--7-6--6-4------4----2--2--------2--4-6-*|-2-2-2-2-2-2-|
E---|---------------2-4--------------------------|-------------|
                                                                
                                                        
    
G------|------|------|---------------------------------|
D------|------|------|---------------------------------|
A------|------|------|---------------------------------|
E---0--|-0----|-0----|-0-0-0-0-0-0-0-0-0-0-0-0-0-0-0-0-|
                                                        
                                                
  Outro 
G--------------------|-------------------------|
D--------------------|-------------------------|
A------0-0--4-4--2-2-|----0-0--4-4-2-2-0-0-2-2-|
E---0----------------|-0-----------------------|
                                                
                                                 
  
G--------------------|--------------------------|
D--------------------|--------------------------|
A------0-0--4-4--2-2-|----0-0--4-4-2-2-0-0-2----|
E---0----------------|-0----------------------0-|
                                                 
                                                  
    
G------------------------|-----------------------|
D------------------------|-----------------------|
A---0-0--4-4--2-0-0-2----|-0-0--4-4-2-2-0-0-2----|
E----------------------0-|---------------------0-|
                                                  
                                          
                                    End
G-------------------------|-------|------|
D-------------------------|-------|------|
A---0-0--4-4-2-2-0-0-2--2-|-------|------|
E-------------------------|-0---0-|----0-|
Comments