Pat 182 - Dont Turn Around Cause Ill Kick You In The Ass Chords & Tabs

 

Dont Turn Around Cause Ill Kick You In The Ass Chords & Tabs

Pat 182 Chords & Tabs

Version: 1 Type: Tab 0 ratings
1 star 2 stars 3 stars 4 stars 5 stars
comments

Dont Turn Around Cause Ill Kick You In The Ass Tab

   
----------------------------------------------------------------------
       DON'T TURN AROUND 'CAUSE I'LL KICK YOU IN THE ASS - Pat 182
----------------------------------------------------------------------

By: Pat Heath

e|-------------------------------------------------------------------|
B|-------------------------------------------------------------------|
G|-------------------------------------------------------------------|
D|-------------------------------------------------------------------|
A|----12---12---9---7---5---5---5---7---10-10-10-10-10-10-10-10------|
E|-10----9----7---5---3---2---3---5-----12-12-12-12-12-12-12-12------|
 
Don't Turn Around Cause....
e|-0-0-0-0-0-0-0-4-4-4-4-4-4-4-4-0-0-0-0-0-0-0-0-0-0-0-0-0-0-0-0-0-0-|
B|-2-2-2-2-2-2-2-0-0-0-0-0-0-0-0-2-2-2-2-2-2-2-2-2-2-2-2-2-2-2-2-2-2-|
G|-3-3-3-3-3-3-3-5-5-5-5-5-5-5-5-3-3-3-3-3-3-3-3-3-3-3-3-3-3-3-3-3-3-|
D|-0-0-0-0-0-0-0-0-0-0-0-0-0-0-0-0-0-0-0-0-0-0-0-0-0-0-0-0-0-0-0-0-0-|
A|-4-4-4-4-4-4-4-7-7-7-7-7-7-7-7-7-4-4-4-4-4-4-4-4-4-4-4-4-4-4-4-4-4-|
E|-------------------------------------------------------------------|
[ Tab from: http://www.guitartabs.cc/tabs/p/pat_182/dont_turn_around_cause_ill_kick_you_in_the_ass_tab.html ]
And you know it's gonna hurt when I kick....
e|-------------------------------------------------------------------|
B|-------------------------------------------------------------------|
G|-------------------------------------------------------------------|
D|-------------------------------------------------------------------|
A|----12---12---9---7---5---5---5---7---10-10-10-10-10-10-10-10------|
E|-10----9----7---5---3---2---3---5-----12-12-12-12-12-12-12-12------|

Cause I'm wearing metal cleats TONIGHT!!!!
e|-0-0-0-0-0-0-0-4-4-4-4-4-4-4-4-0-0-0-0-0-0-0-0-0-0-0-0-0-0-0-0-0-0-|
B|-2-2-2-2-2-2-2-0-0-0-0-0-0-0-0-2-2-2-2-2-2-2-2-2-2-2-2-2-2-2-2-2-2-|
G|-3-3-3-3-3-3-3-5-5-5-5-5-5-5-5-3-3-3-3-3-3-3-3-3-3-3-3-3-3-3-3-3-3-|
D|-0-0-0-0-0-0-0-0-0-0-0-0-0-0-0-0-0-0-0-0-0-0-0-0-0-0-0-0-0-0-0-0-0-|
A|-4-4-4-4-4-4-4-7-7-7-7-7-7-7-7-7-4-4-4-4-4-4-4-4-4-4-4-4-4-4-4-4-4-|
E|-------------------------------------------------------------------|

Pat 182 is the greatest band out of Vancouver. Um this is like one hundred
percent right. if not email presdentpat@hotmail.com

===============================================================================
Comments