Pastorius Jaco - Chicken Chords & Tabs

 

Chicken Chords & Tabs

Pastorius Jaco Chords & Tabs

Version: 1 Type: Bass Tab 0 ratings
1 star 2 stars 3 stars 4 stars 5 stars
comments

Chicken Bass Tab

G|----------------------------------------------------------------|
D|---------------5-8-------------5-8-------------5-8---8-8-8-8-6-8|
A|------55-66--8---------55-66-8--------55-66-8-------------------| x2
E|----6-----------------6--------------6--------------------------|
[ Tab from: http://www.guitartabs.cc/tabs/p/pastorius_jaco/chicken_btab.html ]
G|---------------58-------------58----------------47---------------|
D|-----55--66--8--------55-66-8---------44-55--7-------------------|
A|---6----------------6---------------5----------------------------|
E|-----------------------------------------------------------------|

G|-------------------------------------25----------------25--------|
D|-----------------2--5------22--33-5-----------22-33--5-----------|
A|------2-2-33--5----------3-----------------3---------------------|
E|---3-------------------------------------------------------------|

G|--------------2--5-----------------------------------------------|
D|----22--33--5-------------8--6---------------8-------------------|
A|-3-----------------------------8--7-6----------------------------|
E|---------------------------------------9--6----------------------|
Comments