Passenger - Fairy Tales And Firesides Chords & Tabs

 

Fairy Tales And Firesides Chords & Tabs

Passenger Chords & Tabs

Version: 2 Type: Tab 0 ratings
1 star 2 stars 3 stars 4 stars 5 stars
comments

Fairy Tales And Firesides Tab

   
      ------- Passenger - Fairy Tales and Firesides ------------------------|
----------------------------------------------------------------------------|

Standard Tuning. Capo 3rd Fret

--- Intro ---

E|-----------------------------------------|
A|-3-------------------3-------------------|
D|------3----2----0---------2----2----2----| x4
G|---0----0----0----0----0----0----0----0--|
B|--1----1----1----1----1----1----1----1---|
e|-----------------------------------------|

--- Verse ---

E|---------------------1-----------------------------------------------------------|
A|-3---------------------------------------3-------------------3-------------------|
D|------2----2----2---------3----3----3---------2----2----2---------2----2----2----|
G|---0----0----0----0----0----0----0----0----0----0----0----0----0----0----0----0--|
B|--1----1----1----1----1----1----1----1----1----1----1----1----1----1----1----1---|
e|---------------------------------------------------------------------------------|

    C                   F                   C                   C
  We are bitter losers, snarling through our smiles


E|---------------------1-------------------3-------------------3-------------------|
A|-0-------------------------------------------------------------------------------|
D|------2----2----2---------3----3----3---------0----0----0---------0----0----0----|
G|---2----2----2----2----0----0----0----0----0----0----0----0----0----0----0----0--|
B|--1----1----1----1----1----1----1----1----1----1----1----1----1----1----1----1---|
e|---------------------------------------------------------------------------------|

   AM                   F                   G                   G
  We're the lost boys, in the supermarket isles



E|-1-------------------3------------------|
A|----------------------------------------|
D|------3----3----3---------0----0----0---|
G|---0----0----0----0----0----0----0----0-|
B|--1----1----1----1----1----1----1----1--|
e|----------------------------------------|

   F                    G
  We're Christmas dogs, dumped by the side of the road


E|------------------------------------------|
A|-3--------2----------0--------------------|
D|------2---------0----------2----2----2----|
G|---0----0----0----0-----2----2----2----2--|
B|--1----1----1----1-----1----1----1----1---|
e|------------------------------------------|

   C        C/G         AM
  Confused, we will run for miles


E|-1-------------------3-----------------------------------------------------------|
A|-----------------------------------------3-------------------3-------------------|
D|------3----3----3---------0----0----0---------2----2----2---------2----2----2----|
G|---0----0----0----0----0----0----0----0----0----0----0----0----0----0----0----0--|
B|--1----1----1----1----1----1----1----1----1----1----1----1----1----1----1----1---|
e|---------------------------------------------------------------------------------|

   F                    G                   C
  We are road rage, We are stone age, We are wild


--- Verse 2 ---

       C                        F               C
We are busted light bulbs, in a backstreet neon sign
          AM                F               G
We're the shaking gun, in a service station line
      F
We'll drink though we're drunk,
      G
We'll sink though we've sunk
      C                            AM
We're fucked but we say that we're fine
       F
We are rampage,
        G                  C
Missing back page's in our spine




--- Chorus ---

E|-1-------------------1---------------------------------------3-------------------|
A|-----------------------------------------3---------------------------------------|
D|------3----3----3---------3----3----3---------2----2----2---------0----0----0----|
G|---0----0----0----0----0----0----0----0----0----0----0----0----0----0----0----0--|
B|--1----1----1----1----1----1----1----1----1----1----1----1----1----1----1----1---|
e|---------------------------------------------------------------------------------|

   F                    F                  C                    G
  We long, for journeys and the roadside

[ Tab from: http://www.guitartabs.cc/tabs/p/passenger/fairy_tales_and_firesides_tab_ver_2.html ]
E|-1-------------------1---------------------------------------3-------------------|
A|-----------------------------------------3---------------------------------------|
D|------3----3----3---------3----3----3---------2----2----2---------0----0----0----|
G|---0----0----0----0----0----0----0----0----0----0----0----0----0----0----0----0--|
B|--1----1----1----1----1----1----1----1----1----1----1----1----1----1----1----1---|
e|---------------------------------------------------------------------------------|

   F                   F                   C                    G
  We long, for starlight and the low tide


E|-1-------------------1---------------------------------------3-------------------|
A|-----------------------------------------3---------------------------------------|
D|------3----3----3---------3----3----3---------2----2----2---------0----0----0----|
G|---0----0----0----0----0----0----0----0----0----0----0----0----0----0----0----0--|
B|--1----1----1----1----1----1----1----1----1----1----1----1----1----1----1----1---|
e|---------------------------------------------------------------------------------|

   F                   F                   C                    G
  Yeah, we long, for fairy tales and fire sides


E|-----------------------------------------|
A|-3-------------------3-------------------|
D|------2----2----2---------2----2----2----|
G|---0----0----0----0----0----0----0----0--|
B|--1----1----1----1----1----1----1----1---|
e|-----------------------------------------|

   C                   C
  And Oh.



Repeat the Intro 2x


--- Verse 3 ---


       C
We are coffeehouse cynics,
    F                       C
Too righteous, too rigid to believe
    AM
Disappointed romantics,
F                             G
Scraping the heart's from our sleeves
          F
We're the toothless drunk,
          G
We're the ageing punk
             C
Yeah, we are Adam,
                          AM
We're the apple and we're Eve
       F            G                     C
We are beggars with shiny pennies, on our knees


--- Chorus ---

   F                         C   G
We long, for sunlight on the hillsides
         F                        C   G
Yeah, we long, for yesterdays and hindsight
       F                         C   G
Oh, we long, for fairy tales and firesides
    C
And oh,


--- Bridge ---

E|---------------------3-------------------|
A|-----------3-------------------0---------|
D|-0--------------2---------0---------2----| x3
G|------2----------------------------------|
B|---3----3----3----3----3----3----3----3--|
e|--1----1----1----1----1----1----1----1---|


   DM        C          G        AM

E|---------------------3-------------------|
A|-----------3--------------2----3----2----|
D|-0--------------2------------------------|
G|------2----------------------------------|
B|---3----3----3----3----3----3----3----3--|
e|--1----1----1----1----1----1----1----1---|

   DM        C         G                   D


E|----------------------3---------------------------------------3-------------------|
A|------------3-------------------0---------1---------------------------------------|
D|--0--------------2---------0---------2---------3----3----3---------0----0----0----|
G|-------2--------------------------------------------------------------------------|
B|----3----3----3----3----3----3----3----3----3----3----3----3----3----3----3----3--|
e|---1----1----1----1----1----1----1----1----1----1----1----1----1----1----1----1---|

    DM        C         G         AM        Bb                 G


--- Chorus ---

        F                      C          G
Yeah we long for carnivals and fairground rides
       F                         C   G
Oh, we long for journeys and the roadsides
       F                        C   G
Oh, we long for fairy tales and firesides

E|------------------|
A|---------------3--|
D|-0h2--0--2--0--2--|
G|---------------0--|
B|-0h1--0--1--0--1--|
e|------------------|

 And Oh.
Comments