Passenger - Circles Chords & Tabs

 

Circles Chords & Tabs

Passenger Chords & Tabs

Version: 3 Type: Tab 0 ratings
1 star 2 stars 3 stars 4 stars 5 stars
comments

Circles Tab

   
-------------------------------------------------------------------------------
                             CIRCLES - Passenger
-------------------------------------------------------------------------------
Tabbed by: Sergio

Dedicated to my better half :) 



Tuning: Standard
Capo: 9 (Album version)


INTRO (x2)

      Am7           G              Am7           G
e|------------------------------------------------------------------|
B|-------1--------1----0h1p0-----0----1--------1----0--3p1p0--------|
G|------------0--------------0-------------0-----------------0------|
D|-------2------2------0h2p0---0------2------2------0------0--------|
A|----0-----0----------------------0-----0--------------------------|
E|------------------3------3---------------------3-----3------------|

      Am7           G              Em            D
e|--------------------------------------------------0h2p0-----0-----|
B|-------1--------1----0h1p0-----0----0--------0----------3---------|
G|------------0--------------0-------------0--------2-------2-------|
D|-------2------2------0h2p0---0------2------2---0------0-----------|
A|----0-----0-------------------------------------------------------|
E|------------------3------3-------0-----0--------------------------|



VERSE (x2)
      Am7           G             Am7           G
e|------------------------------------------------------------------|
B|-------1--------1----0--------0----1--------1----0--------0-------|
G|------------0-------------0-------------0-------------0-----------|
D|-------2------2------0------0------2------2------0------0---------|
A|----0-----0---------------------0-----0---------------------------|
E|------------------3-----3---------------------3-----3-------------|

                       First time|-------->
      Am7           G             Em            D
e|-------------------------------------------------0h2p0-----0------|
B|-------1--------1----0--------0----0--------0----------3----------|
G|------------0-------------0-------------0--------2-------2--------|
D|-------2------2------0------0------2------2---0------0------------|
A|----0-----0-------------------------------------------------------|
E|------------------3-----3-------0-----0---------------------------|

                      Second time|-------->
                                  A7            A7
                               -------------------------------------|
                               ------2--------2----2--------2-------|
                               -----------0-------------0-----------|
                               ------2------2------2------2---------|
                               ---0-----0-------0-----0-------------|
                               -------------------------------------|

Am7            G
    It's been years
         Am7             G
Since we     carved our names
     Am7             G
On a     clocktower door
       Em           D
Before everything changed

        Am7           G
We were     big eyed boys
         Am7               G
With the     salt on our skin
         Am7            G            A7
And we'd     throw our kites to the wind



CHORUS (x3)
      Em            G             C     C/B     Am7
e|-------------------------------------------------------------------|
B|-------0--------0----0--------0----1--------1----0h1-------1-------|
G|------------0-------------0-------------0--------------0-----------|
D|-------2------2------0------0------2------0------2-------2---------|
A|--------------------------------3-----2-------0------0-------------|
E|----0-----0-------3-----3------------------------------------------|

               Em     G      C  C/B Am7
And they'd fly on and on and on and on
Em        G      C  C/B Am7
   On and on and on and on
Em        G      C  C/B Am7
   On and on and on and on




INTRO (x1)

  Continue from Am7 at the end
  of the chorus --> G              Am7           G
e|------------------------------------------------------------------|
B|---------------------0h1p0-----0----1--------1----0--3p1p0--------|
G|---------------------------0-------------0-----------------0------|
D|---------------------0h2p0---0------2------2------0------0--------|
A|---------------------------------0-----0--------------------------|
E|------------------3------3---------------------3-----3------------|

      Am7           G              Em            D
e|--------------------------------------------------0h2p0-----0-----|
B|-------1--------1----0h1p0-----0----0--------0----------3---------|
G|------------0--------------0-------------0--------2-------2-------|
D|-------2------2------0h2p0---0------2------2---0------0-----------|
A|----0-----0-------------------------------------------------------|
E|------------------3------3-------0-----0--------------------------|



VERSE (x2)
      Am7           G             Am7           G
e|------------------------------------------------------------------|
B|-------1--------1----0--------0----1--------1----0--------0-------|
G|------------0-------------0-------------0-------------0-----------|
D|-------2------2------0------0------2------2------0------0---------|
A|----0-----0---------------------0-----0---------------------------|
E|------------------3-----3---------------------3-----3-------------|

                       First time|-------->
      Am7           G             Em            D
e|-------------------------------------------------0h2p0-----0------|
B|-------1--------1----0--------0----0--------0----------3----------|
G|------------0-------------0-------------0--------2-------2--------|
D|-------2------2------0------0------2------2---0------0------------|
A|----0-----0-------------------------------------------------------|
E|------------------3-----3-------0-----0---------------------------|

                      Second time|-------->
                                  A7            A7
                               -------------------------------------|
                               ------2--------2----2--------2-------|
                               -----------0-------------0-----------|
                               ------2------2------2------2---------|
                               ---0-----0-------0-----0-------------|
                               -------------------------------------|
[ Tab from: http://www.guitartabs.cc/tabs/p/passenger/circles_tab_ver_3.html ]
Am7            G
    It's been years
         Am7            G
Since we     whispered soft
         Am7             G
With the     torch light on
        Em        D
And the big light off

        Am7        G
We were     tired boys
         Am7              G
With the     soap on our skin
         Am7         G           A7
And we'd     fall asleep to the wind



CHORUS (x3)
      Em            G             C     C/B     Am7
e|-------------------------------------------------------------------|
B|-------0--------0----0--------0----1--------1----0h1-------1-------|
G|------------0-------------0-------------0--------------0-----------|
D|-------2------2------0------0------2------0------2-------2---------|
A|--------------------------------3-----2-------0------0-------------|
E|----0-----0-------3-----3------------------------------------------|

               Em     G      C  C/B Am7
And we'd dream on and on and on and on
Em        G      C  C/B Am7
   On and on and on and on
Em        G      C  C/B Am7
   On and on and on and on



BRIDGE 
      Am7           D4add2/A      A7no3
e|-------------------------------------------------------------------|
B|-------1--------1----3--------3----5--------5----------------------|
G|------------0-------------0-------------0--------------------------|
D|-------2------2------4------4------5------5------------------------|
A|----0-----0-------0-----0-------0-----0----------------------------|
E|-------------------------------------------------------------------|

      G             Bm7           Am7
e|-------------------------------------------------------------------|
B|-------0--------0----3--------3----1--------1----1--------1--------|
G|------------0-------------0-------------0-------------0------------|
D|-------0------0------4------4------2------2------2------2----------|
A|------------------2-----2-------0-----0-------0-----0--------------|
E|----3-----3--------------------------------------------------------|

      G             Bm7           C     C/B     Am7
e|-------------------------------------------------------------------|
B|-------0--------0----3--------3----1--------1----0h1-------1-------|
G|------------0-------------0-------------0--------------0-----------|
D|-------0------0------4------4------2------0------2-------2---------|
A|------------------2-----2-------3-----2-------0------0-------------|
E|----3-----3--------------------------------------------------------|

      G             B7            Em            C
e|--------------------------------------------------------------------------|
B|-------0--------0----4--------4----0--------0----1--------1----1--------1-|
G|------------0-------------0-------------0-------------0-------------0-----|
D|-------0------0------4------4------2------2------2------2------2------2---|
A|------------------2-----2---------------------3-----3-------3-----3-------|
E|----3-----3---------------------0-----0-----------------------------------|

Am - D4add2/A - A7no3

           G
cos we're circles
       Bm7        Am7
we're circles you see
       G               Bm7
we go round round the sun
       C    C/B      Am7
in and out like the sea
      G            B7
i'll circle round you
          Em           C
you will circle round me



INTRO (x1) with a slight variation at the end
      Am7           G              Am7           G
e|------------------------------------------------------------------|
B|-------1--------1----0h1p0-----0----1--------1----0--3p1p0--------|
G|------------0--------------0-------------0-----------------0------|
D|-------2------2------0h2p0---0------2------2------0------0--------|
A|----0-----0----------------------0-----0--------------------------|
E|------------------3------3---------------------3-----3------------|

      Am7           G              Em             D
e|---------------------------------3------3h5-----2------2h3--------|
B|-------1--------1----0h1p0-----0----0---------0----0--------------|
G|------------0--------------0----------0--------------0------------|
D|-------2------2------0h2p0---0------2-------2---0------0----------|
A|----0-----0-------------------------------------------------------|
E|------------------3------3-------0------0-------------------------|



VERSE (x2)
      Am7           G             Am7           G
e|------------------------------------------------------------------|
B|-------1--------1----0--------0----1--------1----0--------0-------|
G|------------0-------------0-------------0-------------0-----------|
D|-------2------2------0------0------2------2------0------0---------|
A|----0-----0---------------------0-----0---------------------------|
E|------------------3-----3---------------------3-----3-------------|

                       First time|-------->
      Am7           G             Em            D
e|-------------------------------------------------0h2p0-----0------|
B|-------1--------1----0--------0----0--------0----------3----------|
G|------------0-------------0-------------0--------2-------2--------|
D|-------2------2------0------0------2------2---0------0------------|
A|----0-----0-------------------------------------------------------|
E|------------------3-----3-------0-----0---------------------------|

                      Second time|-------->
                                   Pause        A7     (let it ring)
                                   ---------------------------------|
                                   -------------------2-------------|
                                   -----------------0---------------|
                                   ---------------2-----------------|
                                   -------------0-------------------|
                                   ---------------------------------|

Am7         G
    and in years
         Am7              G
when the     torch light thins
        Am7                G
and the     clock tower's gone
        Em         D
and the big light dims

         Am7            G
we'll no     longer be boys
           Am7               G
we'll have     lines on our skin
            Am7            G               A7
and they'll     throw our dust to the wind



Comments