Paroxysm - Dont Know Chords & Tabs

 

Dont Know Chords & Tabs

Paroxysm Chords & Tabs

Version: 1 Type: Tab 0 ratings
1 star 2 stars 3 stars 4 stars 5 stars
comments

Dont Know Tab

yeah gday ppl's. this is just a song that me and my band PAROXYSM 
had made up so i hope you'll enjoy it as much as we did making it up.
we aint got a name for it yet but we should once we've made up some 
lyrics aswell and this is also our first song we've ever made up so 
if its shit, fuk off and giv us a break.

INTRO/CHORUS-
e|---------------------------------------------------------------|
b|---------------------------------------------------------------|
g|---------------------------------------------------------------|
d|-0-0-2h3-0-----0-2h3-0-----0-2h3-0--3p2-0--5-------------------|
a|-0-0-2h3-0-x---0-2h3-0-x---0-2h3-0--3p2-0--5-------------------|
d|-0-0-2h3-0-x---0-2h3-0-x---0-2h3-0--3p2-0--5-------------------|

VERSE-
e|---------------------------------------------------------------|
b|---------------------------------------------------------------|
g|---------------------------------------------------------------|
d|--------0(r)------------------------0(r)---0-2-3-2-------------|
a|-0-0--x-0(r)---0-0--x-6(r)---0-0--x-0(r)---0-2-3-2-------------|
d|-0-0--x--------0-0--x-6(r)---0-0--x--------0-2-3-2-------------|

e|---------------------------------------------------------------|
b|---------------------------------------------------------------|
g|---------------------------------------------------------------|
d|--------0(r)------------------------0(r)---0-3-2-3-------------|
a|-0-0--x-0(r)---0-0--x-6(r)---0-0--x-0(r)---0-3-2-3-------------|
d|-0-0--x--------0-0--x-6(r)---0-0--x--------0-3-2-3-------------|
[ Tab from: http://www.guitartabs.cc/tabs/p/paroxysm/dont_know_tab.html ]
PRE CHORUS-
e|---------------------------------------------------------------|
b|---------------------------------------------------------------|
g|---------------------------------------------------------------|
d|-7-----5-----3-----2-----1-------------------------------------|
a|-7-x8--5-x8--3-x8--2-x4--1-x4----------------------------------|
d|-7-----5-----3-----2-----1-------------------------------------|

INTERLUDE-
e|---------------------------------------------------------------|
b|---------------------------------------------------------------|
g|---------------------------------------------------------------|
d|---0-0------------0-0----------------0-0------------0-0--------|
a|-0-0-0-7-6(r)---0-0-0-7-6-6-5(r)---0-0-0-7-6(r)---0-0-0-7-6-5-3|
d|-0 ----7-6(r)---0-----7-6-6-5(r)---0-----7-6------0-----7-6-5-3|


SONG STRUCTURE-

Intro  x2  
Verse  x4
Pre Chorus  x1 
Chorus  x4
Verse  x4 
Pre Chorus  x1
Chorus  x4
Interlude  x2
Pre Chorus  x1
Chorus  x4
(end)

NOTES-
* This song is in D tune
* Im not exactly sure bout the interlude but i recon its cool, 
  (still need to check it with my band)
* Me and my band havent exactly figured out the words for the song 
  so the verses and chorus might go for longer or shorter, there 
  maybe even more verses.
* Im mainly submiting this just in case my band gets big and so
  knowone will try and copyrigh our song cos we think its fukn 
  sweet. 
* If you have any comments just giv us a shout at me email 
  dasump@hotmail.com

  alright then, i guess thats it so from me and my band PAROXYSM, 
  hav a good one...
  ...scott


      PAROXYSM RULES!

Comments