Parokya Ni Edgar - Your Song Chords & Tabs

 

Your Song Chords & Tabs

Parokya Ni Edgar Chords & Tabs

Version: 1 Type: Tab 0 ratings
1 star 2 stars 3 stars 4 stars 5 stars
comments

Your Song Tab

YOUR SONG (track 17 of Bigotilyo)
Parokya ni Edgar

johnsantos_17@yahoo.com

Standard tuning: (EADGBE)
Capo on 2nd fret

Verse:

E------0--2--2-		-0--2--0-0-0-
B-0/2--0--2--3-		-2--3--0-0-0-
G-2-2--1--2--2-		-2--2--1-2-1-
D-2-2--2--4--0-play 3x 	-2--0--2-2-2-
A-0-0--2--4----		-0-----2-2-2-
E------0--2----		-------0-0-0-

Chorus:

E-0-0--0--2--2\0-
B-0/2--0--3--2\0-
G-2-2--1--2--2\1-
D-2-2--2--0--4\2-play 2x
A-0-0--2-----4\2-
E------0-----2\0-
[ Tab from: http://www.guitartabs.cc/tabs/p/parokya_ni_edgar/your_song_tab.html ]
Adlib:

E-0-0--0--2--2-3-2---------
B-0/2--0--2--3-3-3----------
G-2-2--1--2--2-2-2---------
D-2-2--2--4--0-0-0--------
A-0-0--2--4-------------
E------0--2-----------

Refrain:

E-2--0--2-3-2--
B-2--0--3-3-3--
G-2--1--2-2-2--play 2x
D-4--2--0-0-0--
A-4--2---------
E-2--0---------

2nd chorus:

E-0-0--0--2--2\0-	-0-
B-0/2--0--3--2\0-	-2-
G-2-2--1--2--2\1-	-2-
D-2-2--2--0--4\2-play 4x-2-
A-0-0--2-----4\2-	-0-
E------0-----2\0-	---

=====()w&_17=====
Comments