Parokya Ni Edgar - Y Chords & Tabs

 

Y Chords & Tabs

Parokya Ni Edgar Chords & Tabs

Version: 5 Type: Tab 0 ratings
1 star 2 stars 3 stars 4 stars 5 stars
comments

Y Tab

   
Title: Y (Why)
Artist: Parokya ni Edgar
Album: Edgar, Edgar Musikahan
Tabbed by: Joshua Aguilar  
Date:Sep/01/2004
Note: Im 98% sure that this tab is correct. Just listen to the music for the timing!
Timing is important!
For comments, questions or corrections please email me at (jughead_182@yahoo.com)
Soon I will open my website for more tabs. Thanks

Legend:
/-slide
h-hammer
p-pulloff
^-bend
r-release bend

Normal Tuning: (eadgbe)

Verse 1:

G        D               C9 
Search your mind for the questions

G      D              C9
Of the answers that I seek

G        D           C9
Close your eyes just imagine

   G        D                      C9
Us together walking down the street

(Repeat Verse 1 Chords)
Do you think this is crazy
I don't know that of which I speak
I don't care just as long as you are there
Watching, listening, or swaying to the beat


Chorus:

        G  D          C9
Tell me why should it matter

        G  D          C9
Tell me why should I even care

        G                   D
Of the things that could go wrong

     Em               C9 
Baby I can't hold for long

    G       D                   C9
For you to know that I am there

        G  D  C9  G  D  C9
Tell me why

(Repeat Verse 1 Chords) + Riff
Riff: 
|-------------------------------------------|
|-----8p7---8p7---8-8---8-------------------|
|---------7-----7---------------------------|
|----------------------------------5/4------|
|------------------------------5h7------5---|
|-------------------------------------------|

Hear the words that I'm saying
Hear them echo in your heart
For I know at this moment

I know that I have done my part

Solo:

   Am              C9           Am
|-------------------------------------------|
|--------1--------------1-------------0-----|
|------2---2----------0---0---------0---0---|
|----2-------2-------2------2-----2-------2-|
|--0-----------0-2-3----------2-0-----------|
|-------------------------------------------|
   done my part    ohh...

  C9                 D               G      D         
|----------------------------5-7-8---8/10---------------------------|
|--------------------3-5-7-8----------------------------------------|
|--------------2-4-5-----------------------12-------11h12-----------|
|--------2-4-5-----------------------------------12-----------------|
|-2--3-5---------------------------------------12-------------------|
|-------------------------------------------------------------------|

  C9                          G           D           C9 
|-----------------------------------------------------14h15p14------------------------------|
|-------------------------------------------12----13-----------15---------------------------|
|----------------------------------12----14----14-----------------14------------------------|
|-9h10p9-------9-------9/10--10/12----12--------------------------------12/14---17/16-------|
|--------10-10---10-10-----------------------------------------------12---------------17-14-|
|-------------------------------------------------------------------------------------------|

Guitar 1
  G         D         C9        G         D          C9
|----------------------------------------------15-14--------------------| 
|----------------------------------------------------12/13-12-----------| 
|-------------------------------------------------------------12-12/14--| 
|-12-12/14-12---10-9-9/10-9-7---12-12/14-12-----------------------------| 
|-----------------------------------------------------------------------| 
|-----------------------------------------------------------------------|

Note: I know that Darius is the only lead
guitarist of the band so it means that   
there is only one lead guitar but if you 
check the song, this part splits into two
guitars. I know that Gabby (Rythym) is   
still strumming in this part so he's not 
doing the other guitar's part. Either you
should have another guitar to do the 	   
second part or you can do it yourself	   
Its possible for this part because  
the frets are  near although i do   
not know if you can play the other  
split parts with only one guitar    
because thefrets are really far     
apart. Just check it out!           
[ Tab from: http://www.guitartabs.cc/tabs/p/parokya_ni_edgar/y_tab_ver_5.html ]
									  
Guitar 2								  
  G         D         C9        G         D          C9			  
|----------------------------------------------------------------------------| 
|-15-15/17-15--13-12-12/13-12-10---15-15/17-15-------------------------------| 
|----------------------------------------------------------------------------| 
|----------------------------------------------------------------------------| 
|----------------------------------------------------------------------------| 
|----------------------------------------------------------------------------| 

Guitar 1
                    G    D       C9             G  D    C9                 G
|----------15-14-12-15--14---------------------------------------------------|
|----12-13--------------------12-12/13-12--8/10-8--7-------------------------|
|-14--------------------------------------------------4-4/5-4-0-2-0-4^-r-2-0-|
|----------------------------------------------------------------------------|
|----------------------------------------------------------------------------|
|----------------------------------------------------------------------------|

Guitar 2
|---------------------------------------------------------------------------------------|
|-----------------------------6/8-7--8p7--------------6/8-7--8p7----4/5-3---------------|
|----------------------------------------7------7-----------------7----------6/7--7/9-7-|
|---------------------------------------------------------------------------------------|
|---------------------------------------------------------------------------------------|
|---------------------------------------------------------------------------------------|
              Tell me why should it matter,     Tell me why should I even care

Guitar 1
  D         C9                        G   D              C9
|-----------------------------5-7-8-8/10------------------------------------------|
|-------------------3---5-7-8-----------------------------------------------------|
|---------------4-5-----------------------12-------11h12--------------12----11h12-|
|-4---4-4/5-5/7---------------------------------12--------12-10--10/12----12------|
|---5-----------------------------------------------------------------------------|
|---------------------------------------------------------------------------------|

Guitar 2
|-------------8-----7---------8-----8/10--10/12-14/15-12--14-15-12-14-10-12--------------------|
|---------------------------------------------------------------------------13--12/10-8-7/8-10-|
|-11-12----------------------------------------------------------------------------------------|
|----------------------------------------------------------------------------------------------|
|----------------------------------------------------------------------------------------------|
|----------------------------------------------------------------------------------------------|
  Of the things that could go wrong, Baby I can't hold for long, For you to know that I
am there, Tell me why
  
Guitar 1
  G     D          C9            G     D           C9  
|-------10---15/14---------------------10----15/14---------------------------|
|------------------12/13-12-10---------------------12/13-12-10---------------|
|-11/12--------------------------11/12---------------------------------------|
|----------------------------------------------------------------------------|
|----------------------------------------------------------------------------|
|----------------------------------------------------------------------------|
                                
Guitar 2
|-------3-----8/7----------------------3------8/7----------------------------|
|----------------------------------------------------------------------------|
|--4/5--------------7/9--7--5/4---4/5--------------7/9--7--5/4---------------|
|----------------------------------------------------------------------------|
|----------------------------------------------------------------------------|
|----------------------------------------------------------------------------|
                           Tell me why

Guitar 1
  G     D          C9            G     D           C9
|-------10---15/14---------------------10----15/14---------------------------|
|------------------12/13-12-10 --------------------12/13-12-8/10--8----------|
|-11/12--------------------------11/12---------------------------------------|
|----------------------------------------------------------------------------|     
|----------------------------------------------------------------------------|
|----------------------------------------------------------------------------|

Guitar 2
|-------3-----8/7----------------------3------8/7----------------------------|
|----------------------------------------------------------------------------|
|--4/5--------------7/9--7--5/4---4/5--------------7/9--7---4/5--4-----------|
|----------------------------------------------------------------------------|
|----------------------------------------------------------------------------|
|----------------------------------------------------------------------------|
 Tell me why                     why.....
Comments