Parokya Ni Edgar - Victor Could Chords & Tabs

 

Victor Could Chords & Tabs

Parokya Ni Edgar Chords & Tabs

Version: 1 Type: Tab 0 ratings
1 star 2 stars 3 stars 4 stars 5 stars
comments

Victor Could Tab

 Title: Victor Could (intro)
 Artist: Parokya Ni Edgar
 Album: Halina sa Parokya
 Track No. 5
 Song Length: 2:23
 Transcribed by: Allan John G. Amisola 
 E-mail add: kogure_18spider@yahoo.com
 Date/Time: Thursday, 08 September 2005 - 9:50 am

[ Tab from: http://www.guitartabs.cc/tabs/p/parokya_ni_edgar/victor_could_tab.html ]
 e|-------------7--7/8--7---------------------------10--8--7--5-----4/5--7------------------------|
 B|----7/8--10-------------7/8--10--12--8-10-12------------------8----------7--7/8----------------|
 G|---------------------------------------------------------------------------------7-------------|
 D|-----------------------------------------------------------------------------------------------|
 A|-----------------------------------------------------------------------------------------------|
 E|-----------------------------------------------------------------------------------------------|

 e|-------------7--7/8--7---------------------------10--8--7--7/8-5-------------------------------|
 B|----7/8--10-------------7/8--10--12--8-10-12----------------------7h8-7h8-5h8-5h8--------------|
 G|----------------------------------------------------------------------------------7-5-4-2-0----|
 D|-----------------------------------------------------------------------------------------------|
 A|-----------------------------------------------------------------------------------------------|
 E|-----------------------------------------------------------------------------------------------|
Comments