Parokya Ni Edgar - Ted Hannah Chords & Tabs

 

Ted Hannah Chords & Tabs

Parokya Ni Edgar Chords & Tabs

Version: 10 Type: Tab 0 ratings
1 star 2 stars 3 stars 4 stars 5 stars
comments

Ted Hannah Tab

"Ted hannah"
ng parokya ni edgar

|-------------------------------------------|
|   '&'                                     |
|    #                                      |
|    #     Tabbed by Jin kadama             |
|   _#_    wahaha!!! pinoy ako!             |
|  ( # )   Mabuhay tayo!!!                  |
|  / O \   jin_kdm@yahoo.com                |
| ( === )  Benedict at jin ay 1 lang!       |
|  `---'                                    |
|-------------------------------------------|

Guitar1 Intro:
e---------------------------|------------------------12--|
b--------10-9---------------|--------10-9---------10-----|
g------9------9----9-8------|------9------9----9---------|
d-9s11----------11-----9----|-9s11----------11-----------|
a------------------------7--|----------------------------|
e---------------------------|----------------------------|

e---------------------------|------------------------12--|
b--------10-9---------------|--------10-9----------------|
g------9------9----9-8------|------9------9--------------|
d-9s11----------11-----9----|-9s11----------11-----------|
a------------------------7--|----------------------------|
e---------------------------|----------------------------|

Guitar2:
e-2--2-0-2--6-5--------------------|
b-3-----------------6----6-5-------|
g-2--------------------7------5----|
d-0------------------------------5-|
a----------------------------------|
e----------------------------------|

e-2--2-0-2--6-5--------------------8-|
b-3-----------------6----6--4s5-6----|
g-2--------------------7-------------|
d-0----------------------------------|
a------------------------------------|
e------------------------------------|

e-2--2-0-2--6-5----------------------|
b-3-----------------6----6-5---------|
g-2--------------------7-------5-----|
d-0--------------------------------5-|
a------------------------------------|
e------------------------------------|

e-2--2-0-2--6-5-----8-----------|
b-3--------------6--------------|
g-2-----------------------------|
d-0-----------------------------|
a-------------------------------|
e-------------------------------|

at pano kung nasulat na sa notebook...
e-2--2-0-2--6-5----------------------|
b-3-----------------6----6-5---------|
g-2--------------------7-------5-----|
d-0--------------------------------5-|
a------------------------------------|
e------------------------------------|

e-2--2-0-2--6-5------8---|
b-3--------------6-------|
g-2----------------------|
d-0----------------------|
a------------------------|
e------------------------|

Guitar1 2nd intro:
e--------------------------|-------------------------12--|
b--------10-9--------------|---------10-9----------------|
g------9------9----9-8-----|-------9------9--------------|
d-9s11----------11-----9---|--9s11----------11-----------|
a------------------------7-|-----------------------------|
e--------------------------|-----------------------------|
[ Tab from: http://www.guitartabs.cc/tabs/p/parokya_ni_edgar/ted_hannah_tab_ver_10.html ]
Ad lib (solo):
e--------------------------------------------------------|
b-10/12-10-9-----------9-10-9--------9-10-9--------------|
g-----------9-9h11-9-11-------9-9-11--------11-9------9--|
d------------------------------------------------11-9----|
a--------------------------------------------------------|
e--------------------------------------------------------|

e------------------------12s14-11-----------------------------------|
b----------------9-10-12----------12----9-10-9---12-10--------------|
g-----------9h11---------------------11--------9-11-9--8h9p8--------|
d------9h11--------------------------------------------------9-9s11-|
a-9h11--------------------------------------------------------------|
e-------------------------------------------------------------------|

e--------------------12-11--------------------------------------------|
b------9-10-12-12s14-------12-9-9-10------9-12-10-9-10----------------|
g-9-11-------------------------------9-11---11-9-------9-11-----------|
d---------------------------------------------------------------------|
a---------------------------------------------------------------------|
e---------------------------------------------------------------------|

e--------------------12-9-12-14-11-12-14-11-12-14-11-12--|
b------9-10-12-12s14-------------------------------------|
g-9-11---------------------------------------------------|
d--------------------------------------------------------|
a--------------------------------------------------------|
e--------------------------------------------------------|
(play this very fast)
e-14-16-12-12-14-11-11-12-9-7-9-11-9-11-12-11-12-14-16---|
b--------------------------------------------------------|
g--------------------------------------------------------|
d--------------------------------------------------------|
a--------------------------------------------------------|
e--------------------------------------------------------|


un lang... Ulitin nyo na lang ung sa guitar 1
tapos...
Guitar1 outro:
e---------------------------|------------------------12--|
b--------10-9---------------|--------10-9---------10-----|
g------9------9----9-8------|------9------9----9---------|
d-9s11----------11-----9----|-9s11----------11-----------|
a------------------------7--|----------------------------|
e---------------------------|----------------------------|

e---------------------------|------------------------12--|
b--------10-9---------------|--------10-9----------------|
g------9------9----9-8------|------9------9--------------|
d-9s11----------11-----9----|-9s11----------11-----------|
a------------------------7--|----------------------------|
e---------------------------|----------------------------|

Ang ganda ng kantang 'to!!! subukan nyo lang... try nyo!
paki rate na man 'to oh... pakinggan nyo na lang ung
pagplucking nito... sa palagay ko na man medyo tma na 'to!

para 'to sa mga friend ko na unlimitedz!!!
Ako(benedict at jin ay isa lang),c james, benja,stan,teo,charlon,lonnar,eljay!!!

mabuhay ang tugtuging pilipino!!!
Comments