Parokya Ni Edgar - Tatlong Araw Chords & Tabs

 

Tatlong Araw Chords & Tabs

Parokya Ni Edgar Chords & Tabs

Version: 4 Type: Tab 0 ratings
1 star 2 stars 3 stars 4 stars 5 stars
comments

Tatlong Araw Tab

title:tatlong araw
artist:parokya ni edgar
hi im chester calayag im 17 yrs old...TAGA PAOMBONG BULACAN..eto ung intro ng tatlong 
di ito perpect pero ganito ung dinig q! 0k?

e---------------|
B---------------|
G---------------|
D---------------|
A--4H5-4--5/7---|
E-5-----5-------|

e----------------|
B----------------|
G----------------|
D----------------|
A--4H5-4---------|
E-5-----5--5--3--|

e-------------------------|
B-------------------------|
G-------------------------|
D--------------7-5--------|
A--4H5-4--5/7-7---5--7/9--|
E-5-----5-----------------|

e-------------------------|
B-------------------------|
G-------------------------|
D-------------------------|
A----5-4------------------|
E-0-5---------------------|
[ Tab from: http://www.guitartabs.cc/tabs/p/parokya_ni_edgar/tatlong_araw_tab_ver_4.html ]
e-------------------------|
B-------------------------|
G-------------------------|
D-------------------------|
A-----4-2-----------------|
E-0-5---------------------|

e-------------------------|
B-------------------------|
G---7-6-4-----------------|
D--7----------------------|
A-7-----------------------|
E-------------------------|

e-------------------------|
B-------------------------|
G------4--2---------------|
D-2--4--------------------|
A-------------------------|
E-------------------------|

THATS ALL!!
binabati ko nga pla  "P.N.C"
sila bryan,mart,eric,oliver,jeffrey,teddy,mark jayson,jason L.,at jovane
pati n rin sila maam mhe an,lera,mylene,melanie,at jean thanks!
at higit sa lhat si gerlyn anne!!!bye
                                       (alrightkamas@yahoo.com)
Comments