Parokya Ni Edgar - Tatlong Araw Chords & Tabs

 

Tatlong Araw Chords & Tabs

Parokya Ni Edgar Chords & Tabs

Version: 2 Type: Tab 0 ratings
1 star 2 stars 3 stars 4 stars 5 stars
comments

Tatlong Araw Tab

Artist:Parokya Ni Edgar
Title:Tatlong Araw
Intro

E------------|------------|
B------------|------------|
G------------|------------|
D----5-4---5-|----5-4-----|
A---5----5---|---5----5-0-|
E--5---------|--5---------|
[ Tab from: http://www.guitartabs.cc/tabs/p/parokya_ni_edgar/tatlong_araw_tab_ver_2.html ]
E------------|-------------|
B------------|-------------|
G------------|-------------|
D----5-4---7-|---6-7-5---4-|
A---5----5---|---------5---|
E--5---------|-------------|

E-------------------|
B-------------------|
G-------------------|
D----5-4--------4-2-|
A-0-5-------0-5-----|
E-------------------|

E-----------------------|
B-----------------------|
G-----7-6--4--------4-1-|
D----7----------2-4-----|
A---7-------------------|
E-----------------------|
Comments