Parokya Ni Edgar - Tamad Si Santa Claus Chords & Tabs

 

Tamad Si Santa Claus Chords & Tabs

Parokya Ni Edgar Chords & Tabs

Version: 2 Type: Tab 0 ratings
1 star 2 stars 3 stars 4 stars 5 stars
comments

Tamad Si Santa Claus Tab

song: tamad si santa claus
band: parokya ni edgar
tabbed by jeff h.(y2jc_28@yahoo.com), gerald(hell_griever@yahoo.com),
glen b.(ycool2cool@yahoo.com)
          hey, medyo nahirapan ako sa mabilis na part pero par-aralan
ninyo. Enjoy!
solo(effects:Distortion)
e---------------------------------------------------|
b-----4--4-5-5s7-7-7-7b--7------4--4-5-4--2-2-2b--2-|
g--5-5--5--------------------5-5--5-----------------|
d---------------------------------------------------|
a---------------------------------------------------|
e---------------------------------------------------|
[ Tab from: http://www.guitartabs.cc/tabs/p/parokya_ni_edgar/tamad_si_santa_claus_tab_ver_2.html ]
e----------------------------------------------------------------|
b----------------------------------------15b-15-13---15b-15-13---|
g------------------------12-14b-14-12--12---------14----------14-|
d-------9---9-10-10s12-14------------14--------------------------|
a--10-10--10-----------------------------------------------------|
e----------------------------------------------------------------|

e--------------                                                                                            
                                                      .
b--12s13---12--                                                                                            
                                                      .
g-------14---12                                                                                            
                                                      .
d--------------                                                                                            
                                                      .
a--------------                                                                                            
                                                      .
e--------------                                                                                            
                                                      .
that's all!
Comments