Parokya Ni Edgar - Swimming Beach Verse Riffs Chords & Tabs

 

Swimming Beach Verse Riffs Chords & Tabs

Parokya Ni Edgar Chords & Tabs

Version: 1 Type: Tab 0 ratings
1 star 2 stars 3 stars 4 stars 5 stars
comments

Swimming Beach Verse Riffs Tab

   
Tabbed By: Jobo Kapunan
Tabbed On: May 16, 2002 Thursday @ 1:57pm to 2:30pm
E-mail Address: jobo@bul.info.com.ph
IRC Nick @ Dalnet: Duron

PAROKYA NI EDGAR: Swimming Beach Verse Riff
Effects Used: Chorus
Alternative: use An Acoustic Guitar
Tuning: Standard "EADGBE" Tuning

 ---------------------------------------------------
 |Comment: This Song Is Played By Two Guitars      |
 |         But It's Also Nice If Played One Guitar |
 |         This Song Is Made Out Of MAJOR Scale ;) |
 |    	   This Song Is In Key Of C (? Not Sure)   |
 |         The Riff Is Divided Into Three Parts    | 
 |         And Remember That I Only DId The First  |
 |	   Guitar's Tab.                           |
 ---------------------------------------------------

Legends:

U = Upstroke
D = Downstroke

First Riff:

   D D U D D D D D D D U D D D D D   
|-----------------------------------|
|-----------------------------------|
|----5-5-5-3-5-3--------------------|
|----------------0-3-3-3-3----------|
|--3-----------------------5-3-0-3--|
|-----------------------------------|

Second Riff:
[ Tab from: http://www.guitartabs.cc/tabs/p/parokya_ni_edgar/swimming_beach_verse_riffs_tab.html ]
   D D U D D D D D D D D D D
|-----------------------------|
|-----------------------------|
|----5-5-5-3-5-3--------------|
|----------------0-3-0---3-5--|
|--3-------------------3------|
|-----------------------------|

Third Riff:

   D D U D D D D D D D U D D D D D D  
|-------------------------------------|
|-------------------------------------|
|----5-5-5-3-5-3----------------------|
|----------------0-3-3-3-3---------0--|
|--3-----------------------5-3-0-3----|
|-------------------------------------|

Fourth RIff:

   D D U D D D D D
|-------------------|
|-------------------|
|----5-5-5-3-5-3----|
|----------------3--|
|--3----------------|
|-------------------|

I Just Divided Them Into So You Can See The Differences ;)

I'll Put ON The Other Parts Of This Song and Other Song Tabs Too.
Feel Free To E-mail Me for Request, Suggestions, Praises And Anything Appreciated.
Hope You'lle Be Happy And Have Your Day FIlled!
ROCK ON!

 --------------------------------------
 | See My Other Tabs:                 | 
 | Eraserheads' Huwag Mo Nang Itanong |
 | Moonstar 88's Torete               |
 --------------------------------------

COPYRIGHTS AND ALL RIGHTS RESERVED
If You Want TO Used This Tab For Public Use And Public Performance
PLEASE ASK PERMISSION TO ME!
Comments