Parokya Ni Edgar - Sorry Na Chords & Tabs

 

Sorry Na Chords & Tabs

Parokya Ni Edgar Chords & Tabs

Version: 3 Type: Tab 0 ratings
1 star 2 stars 3 stars 4 stars 5 stars
comments

Sorry Na Tab

Hello guyz!
Joel B. Cobero po 'to...
Ummm... Wala lang... Ginawan ko lang gawan ng tab 'tong kanta.
Cute naman'di ba?
Hehehehe!
'To kase 'yung favorite na song ng mahal ko eh, among all "parokya" songs.
she inspired me to do this.
Kaya... Para sa kanya 'tong kantang 'to, specially ''yung last part.
Sorry Bernadeth ha, mahal talaga kita eh.
Hi narin sa mga kapit-bahay ko sa Block 35 d'yan sa Brgy. 12, Caloocan City.
Lalo na kay Ricky Bendecio aka "NUNO" or "YOBAB"!
S'ya 'yung laging nag-re-request nito sa'kin eh, everytime na mag-gi-gitara ako sa labas 
bahay namin, saka 'pag nag-i-inuman kami. Hahahaha!
Sa mga taong nagawan ko ng kasalanan, para rin 'to sa inyo.
Hi na nga rin kay Brian, baka magalit 'pag 'di ko binati eh. Hehehehe!
Saka kay Jasmin, nakalimutan ko s'yang batiin sa una kong tab eh. Sorry!

Guyz... I can't say na perfect 'tong gawa ko, pero pwede na 'to!
Just play it with feelings, gaganda na 'yan... Okay?
Madali lang 'to.

ENJOY!

INTRO...

E |-----------------------------------------------2h3f2-------|
B |------------2-----------2-----------2------3---------3-----|
G |-------2-----------1-----------0---------2---2---------2---| play
D |-----2---2-------2---2-------2---2-----0-------------------| twice
A |---0-----------0-----------0-------------------------------|
E |-----------------------------------------------------------|

1st VERSE...

E |-----------------------------------------------2h3f2-------|
B |------------2-----------2-----------2------3---------3-----|
G |-------2-----------1-----------0---------2---2---------2---|
D |-----2---2-------2---2-------2---2-----0-------------------|
A |---0-----------0-----------0-------------------------------|
E |-----------------------------------------------------------|
  |Sorry na, kung nagalit ka 'di naman sinasadya.             |
[ Tab from: http://www.guitartabs.cc/tabs/p/parokya_ni_edgar/sorry_na_tab_ver_3.html ]
E |-----------------------------------------------2h3f2-------|
B |------------2-----------2-----------2------3---------3-----|
G |-------2-----------1-----------0---------2---2---------2---|
D |-----2---2-------2---2-------2---2-----0-------------------|
A |---0-----------0-----------0-------------------------------|
E |-----------------------------------------------------------|
  |Kung may       init        Pipilitin   pangako             |
  |nasabi man     lang ng     kong        sa iyo.             |
  |ako,           ulo.        magabago                        |

E |-----------------------------------------------2h3f2-------|
B |------------2-----------2-----------2------3---------3-----|
G |-------2-----------1-----------0---------2---2---------2---|
D |-----2---2-------2---2-------2---2-----0-------------------|
A |---0-----------0-----------0-------------------------------|
E |-----------------------------------------------------------|
  |Sorry na nakikinig ka ba? Malamang, sawa ka na.            |

E |-----------------------------------------------2h3f2-------|
B |------------2-----------2-----------2------3---------3-----|
G |-------2-----------1-----------0---------2---2---------2---|
D |-----2---2-------2---2-------2---2-----0-------------------|
A |---0-----------0-----------0-------------------------------|
E |-----------------------------------------------------------|
  |Sa ugali       na          At parang   hindi               |
  |kong           ayaw        sirang      humuhinto.          |
  |ito,           magpatalo.  tambucho na                     |

CHORUS...(strummed chords)

E |---5555-----4444------------2222-----------55-----------77---|
B |---5555-----5555------------2222-----------77-----------99---|
G |---6666-----6666------------2222-----------77-----------99---|
D |---7777-----6666------------4444-----------77-----------99---|
A |---7777-----4444------------4444-----------55-----------77---|
E |---5555---------------------2222-----------------------------|

  |Sorry na    kung ako'y      Hindi ako      nauuna      galit.|
   talaga,     medyo tanga.    nag-iisip,     ang

E |---5555-----4444------------2222-----------55-----------77---|
B |---5555-----5555------------2222-----------77-----------99---|
G |---6666-----6666------------2222-----------77-----------99---|
D |---7777-----6666------------4444-----------77-----------99---|
A |---7777-----4444------------4444-----------55-----------77---|
E |---5555---------------------2222-----------------------------|
  |Sorry na    sa aking        Tanggap ko     'wag        sorry |
   talaga,     nagawa.         na mali ako,   magtampo    na.   |
Comments