Parokya Ni Edgar - Sorry Na Chords & Tabs

 

Sorry Na Chords & Tabs

Parokya Ni Edgar Chords & Tabs

Version: 1 Type: Tab 0 ratings
1 star 2 stars 3 stars 4 stars 5 stars
comments

Sorry Na Tab

Sorry na!
Parokya ni Edgar


INTRO:

e |------0--------0-------0--2-2-------------------------|
B |---2--------2-------2------3---3----------------------|
G |--2-2-----1-1------0-0----2---------------------------|
D |-2-------2--------2-----------------------------------|
A |------------------------------------------------------|
E |------------------------------------------------------|
[ Tab from: http://www.guitartabs.cc/tabs/p/parokya_ni_edgar/sorry_na_tab.html ]
VERSE:                                                (8x)
e |------0--------0---------0---2-2----------------------|
B |---2--------2--------2------3---3---------------------|
G |--2-2------1-1------0-0----2--------------------------|
D |-2-------2--------2-----------------------------------|
A |------------------------------------------------------|
E |------------------------------------------------------|

CHORUS:                                               (2x)
e |-------------------------222222-----------------------|
B |-222222--555555----------333333-----------------------|
G |-222222--666666----------222222--111111---------------|
D |-222222--666666--444444----------222222---------------|
A |---------444444--444444----------222222---------------|
E |-----------------222222-------------------------------|


^^^repeat intro^^^
^^^repeat verse^^^
^^^repeat chorus^^^

                                             -instigator-
Comments