Parokya Ni Edgar - Sori Na Nga Po Eh Chords & Tabs

 

Sori Na Nga Po Eh Chords & Tabs

Parokya Ni Edgar Chords & Tabs

Version: 1 Type: Tab 0 ratings
1 star 2 stars 3 stars 4 stars 5 stars
comments

Sori Na Nga Po Eh Tab

   
sorry na.. ulit.
tinab ko, c jin solomon
standard tuning po ito.. ebgdae

effect: distortion
intro: a,aM7,a7,d x2
        a            aM7            a7              d  
e--------------|--------------|---------------|-----------2h3-2------
b-----------2--|-----------2--|-----------2---|-------3---------3----
g-------2---2--|-------1---1--|-------0---0---|-----2---2---------2--
d-----2---2----|-----2---2----|-----2---2-----|---0------------------    
a---0----------|---0----------|---0-----------|----------------------
e--------------|--------------|---------------|----------------------


verse1: a,aM7,a7,d x4

        a            aM7            a7              d  
e--------------|--------------|---------------|-----------2h3-2------
b-----------2--|-----------2--|-----------2---|-------3---------3----
g-------2---2--|-------1---1--|-------0---0---|-----2---2---------2--
d-----2---2----|-----2---2----|-----2---2-----|---0------------------    
a---0----------|---0----------|---0-----------|----------------------
e--------------|--------------|---------------|----------------------


chorus: a,c#m,f#m,d,e x2

      a           c#m         f#m        d       e 
e---------------------------------------3333-----------------
b---22222222----55555555----------------2222-----------------
g---22222222----66666666----22222222----3333----1111---------
d---22222222----66666666----44444444------------2222---------
a---------------44444444----44444444------------2222---------
e---------------------------22222222-------------------------



verse2: a,aM7,a7,d x6

        a            aM7            a7              d  
e--------------|--------------|---------------|-----------2h3-2------
b-----------2--|-----------2--|-----------2---|-------3---------3----
g-------2---2--|-------1---1--|-------0---0---|-----2---2---------2--
d-----2---2----|-----2---2----|-----2---2-----|---0------------------    
a---0----------|---0----------|---0-----------|----------------------
e--------------|--------------|---------------|----------------------


[ Tab from: http://www.guitartabs.cc/tabs/p/parokya_ni_edgar/sori_na_nga_po_eh_tab.html ]
chorus ulit: a,c#m,f#m,d,e x2

      a           c#m         f#m        d       e 
e---------------------------------------3333-----------------
b---22222222----55555555----------------2222-----------------
g---22222222----66666666----22222222----3333----1111---------
d---22222222----66666666----44444444------------2222---------
a---------------44444444----44444444------------2222---------
e---------------------------22222222-------------------------




instrumental: same chords ng chorus.........
kaso ung last part nun ganito:

      a           c#m         f#m        d       e     a (meron siyang isang bagsak ng a, tapos..)     
e---------------------------------------3333------------------
b---22222222----55555555----------------2222-----------2------
g---22222222----66666666----22222222----3333----1111---2------
d---22222222----66666666----44444444------------2222---2------
a---------------44444444----44444444------------2222----------
e---------------------------22222222--------------------------
                                                       (mahal kita,
       aM7            a7              d  
|--------------|---------------|-----------2h3-2------
|-----------2--|-----------2---|-------3---------3----
|-------1---1--|-------0---0---|-----2---2---------2--
|-----2---2----|-----2---2-----|---0------------------    
|---0----------|---0-----------|----------------------
|--------------|---------------|----------------------
sobrang mahal kita.. wala na kong pwdng  sbhn pang iba.

        a            aM7            a7              d                    a 
e--------------|--------------|---------------|-----------2h3-2------|------- 
b-----------2--|-----------2--|-----------2---|-------3---------3----|---2---
g-------2---2--|-------1---1--|-------0---0---|-----2---2---------2--|---2---
d-----2---2----|-----2---2----|-----2---2-----|---0------------------|---2---    
a---0----------|---0----------|---0-----------|----------------------|-------
e--------------|--------------|---------------|----------------------|-------
kundi srry tlga, d ko snsdya, tlgng sbrng mhl kta, wg kng mwwala sori na.)

fe mhal kita. sobra
Comments