Parokya Ni Edgar - San Man Patungo Chords & Tabs

 

San Man Patungo Chords & Tabs

Parokya Ni Edgar Chords & Tabs

Version: 3 Type: Tab 0 ratings
1 star 2 stars 3 stars 4 stars 5 stars
comments

San Man Patungo Tab

song: saan man patungo
band: parokya ni edgar
tabbed by jeff h.(y2jc_28@yahoo.com)& gerald(hell_griever@yahoo.com)
& glen b.(ycool2cool@yahoo.com)
            hey, superdali 'tong kanta na 'to. bobo pa kayo pag
hindi ninyo 'to kaya. Enjoy!
filler(effects: Chorus + Delay)
e---------------------------------------------------------3-2-3-2----|
b--------3-3----------3-3---------1-1------0-0-0-------3-3--------3--|
g---0--0----4-0----------4------------2-0-2-2-2----0--0------------4-|
d----4----------4-2-4-----4--2-0-2------------------4----------------|
a--------------------------------------------------------------------|
e--------------------------------------------------------------------|

e--------------------0-----|
b-------1-1--------3--3----|
g----------2-0--2-2-2--2-0-|
d--2-0-2----------------4--|
a--------------------------|
e--------------------------|
that's all!
[ Tab from: http://www.guitartabs.cc/tabs/p/parokya_ni_edgar/san_man_patungo_tab_ver_3.html ]
Comments