Parokya Ni Edgar - Sampip Chords & Tabs

 

Sampip Chords & Tabs

Parokya Ni Edgar Chords & Tabs

Version: 2 Type: Tab 1 rating
1 star 2 stars 3 stars 4 stars 5 stars
comments

Sampip Tab

   
Song: sampip
Band: parokya ni edgar
Tabbed by Jeffrey Hernandez 
		Hey, this is a great song and the solo and outro lead are great. So enjoy the song!
Intro: g-em7-c-d-dsus-d 2x

			    g 	 em7	   
	Some people of shoes of certain kinds
			   c			 d-dsus-d
	Some people afternoons for the way the moon shines
					  g 				    em7
	And they have their own reasons to feel the way they do
			  c      			   d-dsus-d
	That’s why I ask myself what it is with you
Chorus:
				  C9 			    d-dsus-d
Is there something wrong with the way I speak 
		 C9 		 d-dsus-d
Do you even see me when I pass you on the street
   		   C9			  d-dsus-d
I’ll close my eyes and let it be 
	     Em 		  c          d-dsus-d
Because I just can’t see why you love to hate me
Adlib: g-em7-c-d-dsus-d 2x
			      g   				em7    
	Some people of weekends because they can fool around
				c			    d-dsus-d
	Some people of thunderstorms ‘coz of how the drops of rain fall down
					  g				  em7
	And they have their own reasons whatever they may be
			   c					   d-dsus-d
	That’s why I think its kind of funny that you don’t have one for me
      (chorus)
solo(effect: distortion)
e---------------------------------------------------------------
b-----8-8-10-10s12-12—-12-10-8-10-8----------------------8s10-10
g---s9-9----------------------------9-------------9-11-12-------
d------------------------------------------9-10-12--------------
a-------------------------------------10-12---------------------
e---------------------------------------------------------------

e---12-----------------------10-10-8-10-8-10-8—8h10------
b-----12s13s12-13-12—12-13---10-10-8-10-8-10-8------10s12
g-------------------14-----------------------------------
d--------------------------------------------------------
a--------------------------------------------------------
e--------------------------------------------------------
[ Tab from: http://www.guitartabs.cc/tabs/p/parokya_ni_edgar/sampip_tab_ver_2.html ]
e------------------------------------------------
b—12-10-8-10-8-8-7-8-10-8-7—10s12-10-8s10-8-7s8-8
g---------------9-9------------------------------
d------------------------------------------------
a------------------------------------------------
e------------------------------------------------
		  C9 						  em7
	and it sucks to face the truth that I ain’t got no reason to it
	       C9					  d-dsus-d
	never asked the simple question why I feel the way I do
		 C9					 em7
	and I know it’s stupid on my part to say that I love you
		 C9					d-dsus-d             d-dsus-d
	even though I know you hate me and I don’t know why you do

	Chorus(slow strokes)

Outro(effect: distortion)
E----------------------------7--------------7----------------
B---s12-12-12—12-10-8-10—-8-7-10-8-10-8----8—10-8-10—10s12(5x)
G---------------------------------------9-9------------------
D------------------------------------------------------------
A------------------------------------------------------------
E------------------------------------------------------------

E---10s12-12-10-8-7s8—-10s12-------------------------------------
B---10s12-12-10-8-7s8-------12-10-10-8-7-8-7h8-7—7-8-8s10-8-7-7s8
G------------------------------------------------9---------------
D----------------------------------------------------------------
A----------------------------------------------------------------
E----------------------------------------------------------------

E---8s10-10-10s12-12-12s10-10-10s8-8-8s7----------------
B---8s10-10-10s12-12-12s10-10-10s8-8-8s7—-7h8-7---8-7---
G----------------------------------------------9-7---7s9
D-------------------------------------------------------
A-------------------------------------------------------
E-------------------------------------------------------

E--------------------------------------15--
B--------------------------------15-15b—15b
G------5-----7-9—12-14-14b—-14s16----------
D---5s7-7-7s9-9----------------------------
A------------------------------------------
E------------------------------------------

E---10-10-8-10-8-7-8---7s8-7—7—7-------------------------10
B---10-10-8-10-8-7-8---------10—-10b-8-10-8---------10s12--
G------------------------------------------9---7-9-7-------
D-------------------------------------------7s9------------
A----------------------------------------------------------
E----------------------------------------------------------

E---------------
B---12-10s8----8
G----------9-7-7
D---------------
A---------------
E---------------




Chords:
g…………….320033
em7……….022033
c…………….032010
d…………….000232
dsus…….000233
C9………….032033

that’s the whole song. The outro is pretty long but you’ll get it. 
E mail me for comments y2jc_28@yahoo.com



Comments