Parokya Ni Edgar - Sad Trip Chords & Tabs

 

Sad Trip Chords & Tabs

Parokya Ni Edgar Chords & Tabs

Version: 3 Type: Tab 0 ratings
1 star 2 stars 3 stars 4 stars 5 stars
comments

Sad Trip Tab

Sad Trip by: Parokya ni Edgar
tabbed by: Marwin139
yan lang ang alam ko... kau na bahala sa iba........
[ Tab from: http://www.guitartabs.cc/tabs/p/parokya_ni_edgar/sad_trip_tab_ver_3.html ]
Intro
e------------------------------------------------------------|
b------------------------------------------------------------|
g-----5---------------------------------------11-------------|
d-----5---------6---------11--------5---------11-------------|
a-----7---------6---------11--------5---------9--------------|
e---------------4---------9---------7------------------------|

e------------------------------------------------------------|
b------------------------------------------------------------|
g-----5---------------------------------------11-------------|
d-----5---------6---------11--------5---------11-------------|
a-----7---------6---------11--------5---------9--------------|
e---------------4---------9---------7------------------------|
Comments