Parokya Ni Edgar - Please Dont Touch My Birdie Chords & Tabs

 

Please Dont Touch My Birdie Chords & Tabs

Parokya Ni Edgar Chords & Tabs

Version: 9 Type: Tab 0 ratings
1 star 2 stars 3 stars 4 stars 5 stars
comments

Please Dont Touch My Birdie Tab

artist:parokya ni edgar
title:please don't touch my birdie
submitted by:jesse tiongco

sigurado ako na tama lahat ito..hehehe..enjoy..c", )

SOLO:
e|-------------------------------------17bf-16h17po16------------------|
B|-------14--15--17—-17bf-17~~-17po15----------------17-17bf-17~~------|
G|--///14--14--14--14----------------18--------------------------------|
D|---------------------------------------------------------------------|
A|---------------------------------------------------------------------|
E|---------------------------------------------------------------------|

e|---------------------------------------------------------------------|
B|-----------------------17--------14-15-17-14h15----------------------|
G|-18-16~~-14-13-14b-16bf—-16br-14---------------16-14h16--------------|
D|-------------------------------------------------------16-14---------|
A|---------------------------------------------------------------------|
E|---------------------------------[--------^fast^------------]--------|

[ Tab from: http://www.guitartabs.cc/tabs/p/parokya_ni_edgar/please_dont_touch_my_birdie_tab_ver_9.html ]
e|-----------------------------------------------12--------------------|
B|------------------------------------------14-15----------------------|
G|----------------------------------13-14-16---------------------------|
D|-7-6-7-9-9/12-11-12-14-14/16-14-16-----------------------------------|
A|---------------------------------------------------------------------|
E|---------------------------------------------------------------------|

OUTRO:
e|----------------------------------------------------------------------|
B|---2-3-5-5/7-7/9-10-12-10-12-12bf12bf12bf-12br-10—10h12-10-9-10-9h10--|
G|-/2-2-2-2----------------------------------------11-------------------|
D|--------------------------------------------------------------------7-|
A|----------------------------------------------------------------------|
E|----------------------------------------------------------------------|

e|--------9-10-9h10po9--------------|
B|------10------------10------------|
G|----11----------------11b-9-6b-4--|b
D|-/11------------------------------|
A|----------------------------------|
E|----------------------------------|

e|---2-4-5-4h5po4-----------------------12-----------------------------|
B|--3------------5-5/7-5-7-9-10-12-14-15-------------------------------|
G|-2-------------------------------------------------------------------|
D|---------------------------------------------------------------------|
A|---------------------------------------------------------------------|
E|---------------------------------------------------------------------|


~~~~~~~~~~~~~~~~~~~~~~~~~~~~~~END~~~~~~~~~~~~~~~~~~~~~~~~~~~~~~~~~
Comments