Parokya Ni Edgar - Please Dont Touch My Birdie Chords & Tabs

 

Please Dont Touch My Birdie Chords & Tabs

Parokya Ni Edgar Chords & Tabs

Version: 1 Type: Tab 0 ratings
1 star 2 stars 3 stars 4 stars 5 stars
comments

Please Dont Touch My Birdie Tab

Song: please don’t touch my birdie
Band: parokya ni edgar 
Tabbed by Jeffrey Hernandez 
		Hey, it’s me the 13yr old kid. This only the outro so enjoy.
Outro(effect: distortion)
E---------------------------------------------------------------------
B---------------------9-10-12-10-9-12b-12b-12b—12b-10—10s12-10-9s10(2x)
G------6-7-9--9s11—11--------------------------------11---------------
D---s7—7—-7—7---------------------------------------------------------
A---------------------------------------------------------------------
E---------------------------------------------------------------------

E------------9-10-9---------------------------------------
B-------10-12------10-------------------9-10-9-----------9
G---9s11-------------11b-9----------9-11------9-9s11-9-11-
D--------------------------11b-9—11b----------------------
A---------------------------------------------------------
E---------------------------------------------------------

E---5p-7p—9p—10p--12
B-------------------
G-------------------

That’s all. E mail me at y2jc_28@yahoo.com




[ Tab from: http://www.guitartabs.cc/tabs/p/parokya_ni_edgar/please_dont_touch_my_birdie_tab.html ]
Comments