Parokya Ni Edgar - Para Sayo Chords & Tabs

 

Para Sayo Chords & Tabs

Parokya Ni Edgar Chords & Tabs

Version: 1 Type: Tab

Para Sayo Tab

   
ito poh ay dedicated sa mga tga MDM creekside..
*adlib na nga lng..
wla na nga pla akoh banda ahahah...

-Joe

Tuning: Standard

| /  slide up
| \  slide down
| h  hammer-on
| p  pull-off
| ~  vibrato
| +  harmonic
| x  Mute note
| b  Bend String (kw na bhala how much..)



(basically chords din xa..)
(same as above kea lng naka distortion o pwede naren overdrive..)

adlib:
e|---19b20~---------------------------------------------------|
B|------------------------------------------------------------|
G|---------16--18/21--20-16-18--/20-/21---\13--12/13\12/13~---|
D|------------------------------------------------------------|
A|------------------------------------------------------------|
E|------------------------------------------------------------|
[ Tab from: http://www.guitartabs.cc/tabs/p/parokya_ni_edgar/para_sayo_tab.html ]
e|---------------------------------------|
B|---------------------------------------|
G|---------------------------------------|
D|----18p16-18-18/19---18h19-/21~--------|
A|---------------------------------------|
E|---------------------------------------|

e|--------------------------------------------------------|
B|------------------19-----19\17-19b20~--19-17-16---------|
G|----------23-21~-----21~------------------------18-13---|
D|----19-21-----------------------------------------------|
A|--------------------------------------------------------|
E|--------------------------------------------------------|

e|---------------------------------------------|  yung "vrooomm!" sa huli
B|---14h16p14-17~------------------------------|  parang i-slyd lng pataas
G|--------------------1/12\1-------------------|  den pababa..
D|--------------------1/12\1-------------------|  tmada akoh eh.. kea go!
A|--------------------1/12\1-------------------|  kaw na bhala kng pano..
E|--------------------1/12\1-------------------|

dali lng yan..
god bless..
muah vinci!

jaz col me.. 09225236926/09155071354
noneed_2ask@yahoo.com