Parokya Ni Edgar - Ordertaker Chords & Tabs

 

Ordertaker Chords & Tabs

Parokya Ni Edgar Chords & Tabs

Version: 3 Type: Tab

Ordertaker Tab

title:ordertaker
artist:parokya ni edrgar
tabbed by:martin anaya
email:martin_anaya2002@yahoo.com
intro:
|------------------------------|   |(MABILIS TOH)|
|------------------------------|   |-------------|
|------------------------------|   |-------------|
|999--554433--4444444-77777777-|2x |---665544----|4x
|999--554433--4444444-77777777-|   |---665544----|
|777--332211--6666666-55555555-|   |---443322----|

|------------------------------|
|------------------------------|
|------------------------------|
|999--554433--4444444-77777777-|2x
|999--554433--4444444-77777777-| 
|777--332211--6666666-55555555-| 

|-----------------------|------------------------|
|--------------8--8-----|------------------------|
|--9--9--9--9-7--7--7--7|--9--9--9--9--5--5--4--4| 
|-9--9--9--9-5--5--7--7-|-9--9--9--9--5--5--4--4-|
|7--7--7--7-------5--5--|7--7--7--7--3--3--2--2--|
|-----------------------|------------------------|

verse:
|--------------------------------------------------------------|
|--------------------------------------------------------------|
|--------------------------------------------------------------|
|999----999999999888---------------------888888888999----------|
|999----999999999888---------------------888888888999----------|
|777----777777777666---------------------666666666777----------|
 Waiter! Pa order naman ako ng porkchop! at tsaka ng dalawa ngang kanin!

|---------------------------------------------------------------------|
|---------------------------------------------------------------------|
|---------------------------------------------------------------------|3x
|999999999888-------------------------888888888999--------------------|
|999999999888-------------------------888888888999--------------------|
|777777777666-------------------------666666666777--------------------|
 lagyan mo narin ng konting ketchup!  meron ba kayong chopsuey? (wala po!)
 meron ba kayong adobo? (wala rin po!)  meron ba kayong bulalo?
 meron bang kahit ano? (wala!) wala!

chorus:
|------------------------------|
|------------------------------|
|------------------------------|
|999--554433--4444444-77777777-|2x
|999--554433--4444444-77777777-| 
|777--332211--6666666-55555555-|
 Hoy! wala na bang mo-oh!  wala na bang maorder maorder
 shet! meron ngang menu   wala namang maorder o waiter
[ Tab from: http://www.guitartabs.cc/tabs/p/parokya_ni_edgar/ordertaker_tab_ver_3.html ]
|------------------------------|   |-------------|
|------------------------------|   |-------------|
|------------------------------|   |-------------|
|999--554433--4444444-77777777-|2x |---665544----|4x
|999--554433--4444444-77777777-|   |---665544----|
|777--332211--6666666-55555555-|   |---443322----|
 sana naman                         may siopao man lamang o burger

|------------------------------|
|------------------------------|
|------------------------------|
|999--554433--4444444-77777777-|
|999--554433--4444444-77777777-| 
|777--332211--6666666-55555555-|
paorder! paorder!                 paorder!

===================================================
|-----------------------|------------------------|
|--------------8--8-----|------------------------|
|--9--9--9--9-7--7--7--7|--9--9--9--9--5--5--4--4| 
|-9--9--9--9-5--5--7--7-|-9--9--9--9--5--5--4--4-|
|7--7--7--7-------5--5--|7--7--7--7--3--3--2--2--|
|-----------------------|------------------------|

repeat:verse at chorus

|----------------------------------------------------|
|----------------------------------------------------| 
|99999999-88888888-1111111111111111-1313131313131313-|2x  
|xxxxxxxx-xxxxxxxx-xxxxxxxxxxxxxxxx-xxxxxxxxxxxxxxxx-|  
|77777777-66666666-9-9-9-9-9-9-9-9--1212121212121212-| 
|----------------------------------------------------|  
 waiter   (waiter) order            (order)<--(pang 2x nah toh)       

|----------------------------------------------------|
|----------------------------------------------------|  
|99999999-88888888-1111111111111111-1313131313131313-|2x  
|xxxxxxxx-xxxxxxxx-xxxxxxxxxxxxxxxx-xxxxxxxxxxxxxxxx-| 
|77777777-66666666-9-9-9-9-9-9-9-9--1212121212121212-|  
|----------------------------------------------------| 
 waiter na gwapito ano bang meron dito?
 waiter na gwapito meron bang

|-------------------------------------------|
|-------------------------------------------|
|-9-9---------5-5-----------------------5-5-|
|-9-9---------5-5---------------5-5-----5-5-|3x
|-7-7---------3-3---------------5-5-----3-3-|
|-------------------------------3-3---------|
 chicken mami  longsi tosi at    tapsi   pansit lugaw at
 lomi          tokwa't baboy     pares!  beef!
 fried         siomai            gutom na talaga ako

|0-0-0-0-0-0--2--|
|----------------|
|----------------|4x
|----------------|
|----------------|
|----------------|

|(MABILIS TOH)|
|-------------|
|-------------|
|---665544----|8x
|---665544----|
|---443322----|

repeat:chorus

|-----------------|
|-----------------|
|-----------------|4x
|333--444--555----|
|333--444--555----|
|111--222--333----|
 tanginang karinderia  wala man lamang meriend!!!

mahal ko c *&^%$#@ haha!!!
mater kurakot!!!

kung may error or comment pki email na lng