Parokya Ni Edgar - Nanjan Chords & Tabs

 

Nanjan Chords & Tabs

Parokya Ni Edgar Chords & Tabs

Version: 1 Type: Tab 0 ratings
1 star 2 stars 3 stars 4 stars 5 stars
comments

Nanjan Tab

   
NANJAN
Parokya ni Edgar

johnsantos_17@yahoo.com

Standard Tuning	(EADGBE)


E-0--0---2--2---------
B-0--2---2--3---------
G-1--2---2--2--6--4---
D-2--2---4--0--6--4---
A-2--0---4-----4--2---
E-0------2------------

GTR 1:
Intro:
	EA (2x)

Verse:
	EA (2x)
	F#mA 
	F#mAE 

Chorus:
	AEF#mE 
	F#mDAE 
	AEF#mE 
	F#mEDE 

Bridge: (Power Chords)
	ADC#mBm 
	DC#m 			
	ADC#mBm 
	E

Outro:
	AEA (4x)


GTR 2:

Intro:

E--0---7--4--2--4---|--0--7--4--2--0--|-0--7--4--2--4-|----0-
B-------------------|-----------------|---------------|--0---
G-------------------|-----------------|---------------|------
D-------------------|-----------------|---------------|------
A-------------------|-----------------|---------------|------
E-------------------|-----------------|---------------|------

Verse:

E---x----5----x----5-------
B---9----5----9----5-------
G---9----6----9----6-------
D---9----7----9----7-------
A---7----7----7----7-------
E---0----5----0----5-------

E---2---x---5------2---x----5---0-------------
B---2---x---5------2---x----5---0-------------
G---2---x---6------2---x----6---1-------------
D---4---x---7------4---x----7---2-------------
A---4---x---7------4---x----7---2-------------
E---2---x---5------2---x----5---0--------------

Chorus:
[ Tab from: http://www.guitartabs.cc/tabs/p/parokya_ni_edgar/nanjan_tab.html ]
E----5---x---9--------------------------|----9----x---5----x-------
B----5---9---10---10--10--9--7----------|---10----7---5----9-------
G----6---9---11--------------------9----|---11----7---6----9--------
D----7---9---11-------------------------|---11----7---7----9-------
A----7---7---9--------------------------|----9----5---7----7-------
E----5---0---0--------------------------|-------------5----0--------
 
E--5---x----9----------------------------|----9----x----x----x------
B--5---9----10---10--10--9--9--7---------|---10----9----7----9------
G--6---9----11------------------------9--|---11----9----7----9------
D--7---9----11---------------------------|---11----9----7----9-------
A--7---7----9----------------------------|----9----7----5----7-------
E--5---0----0----------------------------|---------0---------0-------

Bridge:

E---------------------------------------------------------------
B-----------15--14--12-----15--14---------15--14--12-----15--14-
G-sl/--14------------------------------14-----------------------
D---------------------------------------------------------------
A---------------------------------------------------------------
E---------------------------------------------------------------

E--------------------------------------------------------
B------15-14-12---15-14--------15-14-12-----15-14---17~~-
G-14------------------------14---------------------------
D--------------------------------------------------------
A--------------------------------------------------------
E--------------------------------------------------------

Minsan tayo’y biglang nagsama
Kailan? Hindi ko maalala
Basta’t alam ko lang noon ay
Tawa ka ng tawa
Sa jokes kong sobrang corny at
Mas luma pa kay lola.

Nasan ka na kaya?
Magpakita ka naman sana
Bakit kaya biglaan ka na lamang nawala?
Kay tagal ko nang naghihintay sayo
Hindi pa rin sumuko
Di ko man lang nalaman ang pangalan mo.

Sabi nila, ay wag na daw akong aasa pa
Na magbabalik ka pa 
Kung saan tayo huling nagkita
Biglaan ka na lang tumawa ng tumawa
Sa jokes kong sobrang corny at
Mas luma pa kay lola.

Nanjan ka lang pala
Bakit di ka man lang nagsasalita?
Akala ko’y tuluyan ka na lamang nawala
Kay tagal ko nang naghihintay sayo
Anong pangalan mo?
Sana’y palagi ka na lang nanjan sa tabi ko.

Nawawala, dumarating
Hindi man lang napapsin
Nawawala, dumarating
Eto na naman!
Comments