Parokya Ni Edgar - Mr Suave Chords & Tabs

 

Mr Suave Chords & Tabs

Parokya Ni Edgar Chords & Tabs

Version: 8 Type: Tab 0 ratings
1 star 2 stars 3 stars 4 stars 5 stars
comments

Mr Suave Tab

   
MISTER SUAVE
parokya ni edgar
bigotilyo

www.ronreyes.co.nr
www.getmusic.co.nr

intro:
               Bm                          E
e--2-------------------------:-------------0--0----------|
b--3------------3----2--3--:---0-----0-----------0-------|
g--4-----4--------4---------:-----1----------------1-----|
d--4--4----4----------------:-------------------------2--|
a-----------------------------:--------------------------|
e-----------------------------:--------------------------|
              A                       F#m
e-----------0--0----------:--------------2----------|
b--------2--------2-------:--------------2----------|
g-----2--------------2----:-----------2----2--------|
d-----------------------2--:--------4---------4-----|
a--0-----------------------:-----4---------------4--|
e---------------------------:--2--------------------|
              Bm                           E
e--2----------------------------:--------------------------|
b--3-----------3----2--2h3--:----0----------0--------------|
g--4-----4-------4------------:-----1----1-----1s2--1------|
d--4--4----4------------------:--------2----------------2--|
a-------------------------------:--------------------------|
e-------------------------------:--------------------------|
              F#m
e------2--2-----------------2--|
b-------------2-------------2--|
g----------------2----2-----2--|
d-------------------4----4--4--|
a------------------------------|
e--2---------------------------|

[ Tab from: http://www.guitartabs.cc/tabs/p/parokya_ni_edgar/mr_suave_tab_ver_8.html ]
this is the TAB mixed with 1st stanza: (nasa ulap ba ang yong mga mata...)
              Bm                         E
e--2------------------------:-0----------------------|
b--3-----------3------------:-0------------0---------|
g--4-----4-------4----4---:---1-----1--------1----1--|
d--4--4----4-------4------:---2--2----2--------2-----|
a---------------------------:------------------------|
e---------------------------:------------------------|
               A                      F#m
e--------------0-----------:-2-------------------|
b-----------2----2--------:--2------------2------|
g--------2----------2-----:--2-----2--------2----|
d-----2----------------2--:--4--4----4--------4--|
a--0-----------------------:---------------------|
e---------------------------:--------------------|
               Bm                              E
e-------------------------------:-------------------------------|
b---------------2h3----2--3---:--0------------0h1---------------|
g--------4-----------4--------:-----1-----1--------1s2--1-------|
d-----4----4------------------:--------2---------------------2--|
a--2---------------------------:--------------------------------|
e-------------------------------:-------------------------------|
                F#m
e-----------2------------------2--|
b-------2-----2----------------2--|
g-----------------2-----2------2--|
d--------------------4---------4--|
a---------------------------4-----|
e--2------------------------------|


this is the TAB mixed with the 2nd stanza: (subok na ang aking pag-ibig...)
              Bm                      E
e--2--------------------------:-------------|
b--3------------3----2--3--:--0--------2s5--|
g--4-----4--------4---------:---------------|
d--4--4----4----------------:---------------|
a-----------------------------:-------------|
e-----------------------------:-------------|
                A                      F#m
e--------------0--0-----------:---------------2--|
b----------2---------2--------:---------------2--|
g------2----------------2-----:-----------2------|
d---------------------------2--:--------4--------|
a--0---------------------------:-----4-----------|
e-------------------------------:--2-------------|
                Bm                             E
e--2----------------------------:----------------------------|
b--3------------3-----2--2h3---:--0------------0-------------|
g--4-----4--------4-------------:-----1-----1-----1----------|
d--4--4----4--------------------:--------2------------2------|
a---------------------------------:-----------------------2--|
e---------------------------------:--------------------------|
               F#m
e---------2------------------2--|
b------2----2----------------2--|
g---------------2-----2------2--|
d------------------4---------4--|
a-------------------------4-----|
e-2-----------------------------|
Comments