Parokya Ni Edgar - Mr Suave Chords & Tabs

 

Mr Suave Chords & Tabs

Parokya Ni Edgar Chords & Tabs

Version: 6 Type: Tab 0 ratings
1 star 2 stars 3 stars 4 stars 5 stars
comments

Mr Suave Tab

   
Song: Mr. Suave
Band: Parokya ni Edgar
Album: Bigotilyo
Transcribed by Alvin Reyes
E-mail: slapshit_alvin15@yahoo.com


This song is very fun and easy to play, so I decided to figure it out. Actually,
it's played with two guitars, the fluking that played by Gab and the lead guitar
handled by Darius, but what we're going to do is to play this two in only one
guitar. Here it is:

Tuning: EADGBE

Intro:

    Bm                E                        A                 F#m

|-2---------------|------------------------|-----5-5-5-5-4---|-----2-4-5~~-|
|-3---3---3---2-3-|-0---9-10-9h10\9--------|---5---7-7-----5-|---2---------|
|-4-4---4---4-----|---9-------------9------|-6---------------|-2-------4~~-|
|-4---------------|-------------------11-9-|-----------------|-------------|
|-2---------------|------------------------|-0---------------|-------------|
|-----------------|-0----------------------|-----------------|-2-----------|

          Bm                E                   F#m

|-2---------------|-------------------|---------------------2*-|
|-3---3---3---2-3-|-0-----------------|---3-2h3\2-----------2*-|
|-4-4---4---4-----|---2-1---1h2-1---1-|-2---------4-2-1-----2*-|
|-4---------------|-------2-------2---|-----------------4-2-4*-|
|-2---------------|-------------------|---------------------4*-|
|-----------------|-0-----------------|-2-------------------2*-|

Sorry for the verse part, it's not complete coz' there are some I can't
understand, but I promise to fill it soon.

Verse 1
   
    Bm                 E                  A                 F#m

|-2-------2-------|------------------|------------------|------------------|
|-3---3---3-3---3-|------------------|------------------|------------------|
|-4-4---4-----4---|------------------|------------------|------------------|
|-4---------------|------------------|------------------|------------------|
|-2---------------|------------------|------------------|------------------|
|-----------------|------------------|------------------|------------------|
[ Tab from: http://www.guitartabs.cc/tabs/p/parokya_ni_edgar/mr_suave_tab_ver_6.html ]
            Bm                E                   F#m         Fm,  F#m

|-2---------------|-------------------|-----2-------1~~1/2*-|
|-3---3---3---2-3-|-0-----------------|-------2---2-1~~1/2*-|
|-4-4---4---4-----|---2-1---1h2-1---1-|---2-----2---1~~1/2*-|
|-4---------------|-------2-------2---|-------------3~~3/4*-|
|-2---------------|-------------------|-------------3~~3/4*-|
|-----------------|-0-----------------|-2-----------1~~1/2*-|
Verse 2

          Bm                    E       A               F#m

|-2-------------------|---------|---------------|---------------|
|-3---3---3---2-3-----|-5/7\5~--|---------------|---------------|
|-4-4---4---4-----4~~-|-4/6\4~--|---------------|---------------|
|-4-------------------|---------|---------------|---------------|
|-2-------------------|---------|---------------|---------------|
|---------------------|---------|---------------|---------------|

            Bm                E                   F#m         Fm,  F#m

|-2---------------|-------------------|-----2-------1~~1/2*-|
|-3---3---3---2-3-|-0-----------------|-------2---2-1~~1/2*-|
|-4-4---4---4-----|---2-1---1h2-1---1-|---2-----2---1~~1/2*-|
|-4---------------|-------2-------2---|-------------3~~3/4*-|
|-2---------------|-------------------|-------------3~~3/4*-|
|-----------------|-0-----------------|-2-----------1~~1/2*-|

~Chorus, Bm-E-A-F#m
         Bm-E-F#m-Fm,F#m (2X)
        (Listen to the song for the strumming)

~Bridge is also in the same chords with an acoustic guitar played like this,

|-10---9-7---9-10-12---10-9---7-9-10---9-7---5-4-5-|
|--------------------------------------------------|
|--------------------------------------------------|
|--------------------------------------------------|
|--------------------------------------------------|
|--------------------------------------------------|
(continuous picking)

~Do the same chords until the song ends.

Legend:
h - hammer
/ - slide up
\ - slide down
* - break
~ - let ring

That's all! Hope you like it even it's not totally transcribed.
For suggestions just e-mail me at slapshit_alvin15@yahoo.com. Enjoy!!!
Comments