Parokya Ni Edgar - Mr Suave Chords & Tabs

 

Mr Suave Chords & Tabs

Parokya Ni Edgar Chords & Tabs

Version: 4 Type: Tab 0 ratings
1 star 2 stars 3 stars 4 stars 5 stars
comments

Mr Suave Tab

   
band; parokya ni edgar
album: bigotilyo
song: mr. suave
tab by: boybitz
tunning: standard
chords: Bm-E-AM7-F#m-Bm-E-F#m

intro
-----------------4-5-4h5p4---------5-7-7-5-4----2-4-5----------
--3--3-3-2-3-5--5---------5-2----5-----5----5--2----2----------
--4--4-4-4-----4-------------4-6-------6-----2-------2---------
--4-4-4-----------------------------------------------4--------
--2----------------------------0-----------------------4-------
---------------0-----------------------------2-----------------

--------3-------------------------------------------
--3--3-3-3-2---------------3-2h3p2---------2--------
--4--4-4----4-2-1-1-1h2-1-2-------4-2-1----2--------
--4-4-4----------2-------2-------------4-2-4--------
--2-------------------------------------------------
------------0-------------2-------------------------

verse 1
-----------------4-5-4h5p4---------5----------2----------
--3--3-3-2-3-5--5---------5-2-----5----------2-2---------
--4--4-4-4-----4-------------4-6-6---6-6--2-2---2--------
--4-4-4-------------------------------7---4------4-------
--2------------------------------------------------------
---------------0---------------5-------------------------


------------------------------------2--2---------------------
--3--3-3h5-3-2h3----------------------2-1-2------------------
--4--4-4-----4---4-2-1-1-1h2-1---2-2-2--1-2------------------
--4-4-4---------------2--------2-4---------------------------
--2----------------------------------------------------------
-----------------0-------------------------------------------

verse2
-----------------------4-5-4h5p4---------2-4-5~---------------
--3--3-3-2-3-5----5--5-----------5-2---2---------------------
--4--4-4-4-----4~-4-----------------4-2----------------------
--4-4-4-------------------------------------------------------
--2-----------------------------------------------------------
--------------------------------------------------------------

-------------------------------2------------------------------
--3--3-3-2-3-2--------------------2-1-2-----------------------
--4--4-4---4---4-2-1-1-2-1--2-2--2--1-2-----------------------
--4-4-4-------------2-----2-4---4-----------------------------
--2-----------------------------------------------------------
---------------0----------------------------------------------

chorus

--14--16-16--17-17--14-14-14-14--16-16-16--14-14-14-14-----
------------------------------------------------------------------
------------------------------------------------------------------
------------------------------------------------------------------
------------------------------------------------------------------
------------------------------------------------------------------
fast picking area
------------------------------------------------------------------------------------
--15***-14-14-12***-14-14-15-17***-15-15-14***-12-14-15***-14-14-12***--------------
----------------------------------------------------------------------14-13-14***---
------------------------------------------------------------------------------------
------------------------------------------------------------------------------------
------------------------------------------------------------------------------------
[ Tab from: http://www.guitartabs.cc/tabs/p/parokya_ni_edgar/mr_suave_tab_ver_4.html ]
------------------------------------------------------------------------------------
--15-14-15-12--15-14-15--15-14-15-14--15-14-15--17-15-17-14--17-15-17---------------
------------------------------------------------------------------------------------
------------------------------------------------------------------------------------
------------------------------------------------------------------------------------
------------------------------------------------------------------------------------

----------------------------------------------------------------------
--17-15-12-------12-14------------------------------------------------
-----------14-13------------------------------------------------------
----------------------------------------------------------------------
----------------------------------------------------------------------
----------------------------------------------------------------------

-----------------------------------------------------------------------
-15-14-15-12--15-14-15--15-14-12-------------12------------------------
---------------------------------14-13-11h13---14-13-11------11-14~----
--------------------------------------------------------14-11----------
-----------------------------------------------------------------------
-----------------------------------------------------------------------

verse3
-9-9-9/10-12^-10-10/12-14^-12~-14^-------------------------------------
-------------------------------------15p14-15—10h12-9—9h10p9-10--------
---------------------------------------------------------------11------
-----------------------------------------------------------------------
-----------------------------------------------------------------------

-----------------------------------12~---14/17-12-------------------
--------------------12^-14—15p14-12---------------12----------------
--------------12/14----------------------------------14-13---14~----
-------12-14----------------------------------------------14--------
--12h14-------------------------------------------------------------
--------------------------------------------------------------------

chorus(slow part)
------------------------------------------------------------------
--15-14-15-12--14-10-12-------------------------------------------
------------------------13--14-13-14-11---------------------------
----------------------------------------14-13-14-11---------------
------------------------------------------------------------------
------------------------------------------------------------------

--------------------------------------------------------------
--17-15-17-14--15-12-14-10--12-10-----------------------------
---------------------------------13-11------------------------
----------------------------------------14-13-14-11-----------
--------------------------------------------------------------
--------------------------------------------------------------

------------------------------------------------------------------------------
--15-14-15-12--14-10-12--------------------------12---------------------------
-------------------------13--14-13-14-11---11-13---14-13-11----------11-14~---
-----------------------------------------14-----------------14-11-14----------
------------------------------------------------------------------------------
------------------------------------------------------------------------------

end at F#m
Thats it... suave suave lang
any probs email me at boybitz63@yahoo.com
Comments