Parokya Ni Edgar - Mr Suave Chords & Tabs

 

Mr Suave Chords & Tabs

Parokya Ni Edgar Chords & Tabs

Version: 2 Type: Tab 0 ratings
1 star 2 stars 3 stars 4 stars 5 stars
comments

Mr Suave Tab

   
artist: parokya ni edgar
title: mr.suave


INTRO:
   
   Bm                   E		       A
e|--------------------------0--4-4h5--------------0--5-7---------|
b|--3----3---3----3-2---0------------5---------2---------5-------|
g|--4--4---4---4----------1------------6-4-------2---------6-4---|
d|--4------------------------------------------------------------|
a|--2------------------------------------------0-----------------|
e|--2-------------------0----------------------------------------|

   F#		   Bm              E			A	F#	   Bm
e|------2--4-4/5------------------------------------------------------------2---|
b|--2---------------3---3---3------0-------------------3-2h3p2--------------3---|
g|----2---------------4---4---4------2-1---1h2p1-----2---------4-2-1--------4---|
d|---------------------------------------2-------4-2-----------------4-2----4---|
a|--4---------------2-------------------------------------------------------2---|
e|---------------------------------0----------------------------------------2---|

Verse1 (same as intro)
CHORUS: Bm E A F#

Verse2 (tremolo part)
e|--10--9--7--9-10--12--10-9--|-7--9-10--9--7--5-4-5--|
b|----------------------------|-----------------------|
g|----------------------------|-----------------------|
d|----------------------------|-----------------------|
a|----------------------------|-----------------------|
e|----------------------------|-----------------------|

CHORUS

---(hoy hoy hoy part)---

Guitar1: Bm E A F#
[ Tab from: http://www.guitartabs.cc/tabs/p/parokya_ni_edgar/mr_suave_tab_ver_2.html ]
Guitar2 (solo1)
e|-10-9-10------10-9-10----10-9-10----10-9-10----12-11-12----12-11-12---10-9-------------|
b|----------12---------------------10---------------------13-----------------12-10-9-7-9-|
g|---------------------------------------------------------------------------------------|
d|---------------------------------------------------------------------------------------|
a|---------------------------------------------------------------------------------------|
e|---------------------------------------------------------------------------------------|

e|10-9-10------10-9-10----10-9-10----10-9-10-------10-9--------------10-10-9----------------|
b|---------12---------------------10--------------------12-10-9-7-9----------12-10-9-7------|
g|-------------------------------------------------------------------------------------9-11-|
d|------------------------------------------------------------------------------------------|
a|------------------------------------------------------------------------------------------|
e|------------------------------------------------------------------------------------------|

Bridge

----(hoy hoy hoy part)-----

Guitar1: Bm E A F#

Guitar2 (solo2)
e|10-9-10-----9----------------------------------12-11-12----9---------------------------------|
b|---------12---10-12-9-10--------------------------------14---12-14-11-12---------------------|
g|-------------------------12-10-9-10-7-9-5--------------------------------14-12-11-12-9-11-7--|
d|---------------------------------------------------------------------------------------------|
a|---------------------------------------------------------------------------------------------|
e|---------------------------------------------------------------------------------------------|

e|-10-9-10-----9----------------------------|
b|----------12---10-12-9-10-----------------|
g|--------------------------12-10-9-10-7-9--|??????????????
d|------------------------------------------|
a|------------------------------------------|
e|------------------------------------------|

  .....then repeat solo1

mail me .....micsalac@yahoo.com 
Comments