Parokya Ni Edgar - Maniwala Ka Sana Chords & Tabs

 

Maniwala Ka Sana Chords & Tabs

Parokya Ni Edgar Chords & Tabs

Version: 2 Type: Bass Tab 0 ratings
1 star 2 stars 3 stars 4 stars 5 stars
comments

Maniwala Ka Sana Bass Tab

Song title: Maniwala ka sana (minamahal kita)
Artist: Parokya ni Edgar
Tuning: EADG
Tabbed by: Paolo (rage_punks@yahoo.com) with the help of Kuya Andoy,
	   ung ngtuturo sa akin mg-bass...!
Tips... listen to the song for timing and bass riff variations...!

Legend:

\ - slide down
/ - slide up
h - hammer

Intro:

G|----------12------------------------------|
D|----7\10------10/7--9--7/3-----3-5-3-2----|
A|----------------------------5-------------|
E|------------------------------------------|

Main riff: (Verses 1,2 & 3)

G|------------------------------------------|
D|------2-3-5---------------333-------------|
A|----3----------7-5-3----3--------5-3-2----|
E|-------------5--------1--------3----------|

G|------------------------------------------|
D|------2-3-5------777------333-------------|
A|----3----------7--------3--------5-323----|
E|-------------5--------1--------3----------|

Refrain(s):

Refrain 1:
G|------------------------|
D|------------------------|
A|------------------------|
E|----55--33--1-1--1-1----|

G|-------------------------------------------------------------------------|
D|-------------------------------------------------------------------------|
A|--------5/7-5-3----------(-3-023)----  --> done on refrain after verse 1-|
E|----55---------3-3--1-1--------------------------------------------------|

Refrain 2:
G|------------------------|
D|------------------------|
A|------------------------|
E|----55--33--1-1--1-1----|

G|-------------------------------------------------------------------------------|
D|-------------------------------------------------------------------------------|
A|--------5/7-5-3----------(-/88888)----  --> done on refrain after verses 2 & 3-|
E|----55---------3-3--1-1--------------------------------------------------------|

Chorus 1:

G|-------------------------------10-9----------|
D|-----------12-----------14----------10-12----|
A|--------10----10--12-12----12----------------|
E|----8-8--------------------------------------|

G|-------------------------------10\12-10-9h10h9----|
D|-----------12-----------14------------------------|
A|--------10----10--12-12----12---------------------|
E|----8-8-------------------------------------------|

G|-------------------------------10-9----------|
D|-----------12-----------14----------10-12----|
A|--------10----10--12-12----12----------------|
E|----8-8--------------------------------------|

G|-------------------------------10\12-10-9h10h9----|
D|-----------12-----------14------------------------|
A|--------10----10--12-12----12---------------------|
E|----8-8-------------------------------------------|

Guitar Adlib part: (after chorus 1)
[ Tab from: http://www.guitartabs.cc/tabs/p/parokya_ni_edgar/maniwala_ka_sana_btab_ver_2.html ]
G|----------------------------------------|
D|-----------12-----------14--------10----|
A|--------10----10--12-12----12--8--------|
E|----8-8---------------------------------|

G|-------------------------------10\12-10-9h10h9----|
D|-----------12-----------14------------------------|
A|--------10----10--12-12----12---------------------|
E|----8-8-------------------------------------------|

G|------------------------|
D|------------------------|
A|------------------------|
E|----55--33--1-1--1-1----|

G|-------------------------------------|
D|-------------------------------------|
A|--------5/7-5-3----------3-023-------|
E|----55---------3-3--1-1--------------|

Bridge:

G|--------------------------------|
D|--------------------------------|
A|---------8-8--10-10-------------|
E|----8-8-------------------------|

G|----------------------------------|
D|----------------------------------|
A|-------------------/1010101010----|
E|----8-8--1-1--3-3-----------------|

Chorus w/ varied bass riffs:

G|-------------------------------10-9----------|
D|-----------12-----------14----------10-12----|
A|--------10----10--12-12----12----------------|
E|----8-8--------------------------------------|

G|-------------------------------10\12-10-9h10h9----|
D|-----------12-----------14------------------------|
A|--------10----10--12-12----12---------------------|
E|----8-8-------------------------------------------|

G|-------------------------------10-9----------|
D|-----------12-----------14----------10-12----|
A|--------10----10--12-12----12----------------|
E|----8-8--------------------------------------|

G|------------12----12--12\14-12-12--10-9----------|
D|------10--------------------------------10-12----|
A|---------------10--------------------------------|
E|----8----8---------------------------------------|

G|---------12--12\14--12-10-10-9----------|
D|-------------------------------10-12----|
A|----------------------------------------|
E|----8-----------------------------------|

G|-------------------------------10-9----------|
D|-----------12-----------14----------10-12----|
A|--------10----10--12-12----12----------------|
E|----8-8--------------------------------------|

G|-------------------------------10\12-10-9h10h9----|
D|-----------12-----------14------------------------|
A|--------10----10--12-12----12---------------------|
E|----8-8-------------------------------------------|

Ending:

G|-----------------------------------------|
D|-----------12-----------14-------10------|
A|--------10----10--12-12----12-\8---------|
E|----8-8-----------------------------8----|

This is not a perfect transcription. Buwi, the bassist of parokya,
is doing some kinda scaling here,
so better listen to the song, ok?!
E-mail me! or add nyo ako sa friendster, ok?! (rage_punks@yahoo.com) Enjoy...
Comments