Parokya Ni Edgar - Magic Spaceship Chords & Tabs

 

Magic Spaceship Chords & Tabs

Parokya Ni Edgar Chords & Tabs

Version: 1 Type: Tab 0 ratings
1 star 2 stars 3 stars 4 stars 5 stars
comments

Magic Spaceship Tab

song: magic spaceship
band: parokya ni edgar
tabbed by jeffrey h.(y2jc_28@yahoo.com)&glen b.(ycool2cool@yahoo.com)
                  Hey, this really isn't that hard so try your best to get it.
[ Tab from: http://www.guitartabs.cc/tabs/p/parokya_ni_edgar/magic_spaceship_tab.html ]
solo (effects: Flanger) 
   
e ------------------------------------------------------------15--15--15--14--12--10--8---8----------------------------------
b ----------------------------------------15(b)--15(b)----15--15--15--15--14--12--10--10--10----10(b)--10(b)--8----10--8-----
g ---12--12-----------12--14(b)--12----------------------------------------------------------------------------------------9-
d ---12--------12/14---------------------------------------------------------------------------------------------------------
a ---------------------------------------------------------------------------------------------------------------------------
e --------------------------------------------------------------------------------------------------------------------------- 
   
e ---------------------------------------------------------------------------------------------------7------------------
b ---7/8--7--------------------------------------------7--8--10--10--8---7--8----8--8--8--10---8------7--7--7--8--10--7-
g-----------9--7---------5---5--7p.o.5---5----7/9--------------------9----------7--7--7---------------6--6--6--7--------
d --------------------5/7---7-------------7-----------------------------------------------------------------------------
a ----------------------------------------------------------------------------------------------------------------------
e ---------------------------------------------------------------------------------------------------------------------- 

e ---------------------7------------------------------7---------------------------------------------------7---
b ---5--5--5--7--8----8---7--8------8--8--8--10---8------7--7--7--8--10--7-------5--5--5--7--8----8-----8-----
g ---4--4--4--6--7------7------------7--7--7---------------6--6--6--7----------------4--4--4--6--7------7---7-
d ------------------------------------------------------------------------------------------------------------
a ------------------------------------------------------------------------------------------------------------
e ------------------------------------------------------------------------------------------------------------ 
interlude after solo 
     
e ---12-9-7------------12-9-7------------12-9-7--12-9-7--12-14-16--12-9-7--12-9-7-12-14-16 
b ----------10-9-10-----------10-9-10----------------------------------------------------- 
g ------------------9-----------------9---------------------------------------------------
d ----------------------------------------------------------------------------------------
a ----------------------------------------------------------------------------------------
e ----------------------------------------------------------------------------------------
Comments