Parokya Ni Edgar - Katawan Chords & Tabs

 

Katawan Chords & Tabs

Parokya Ni Edgar Chords & Tabs

Version: 1 Type: Tab 0 ratings
1 star 2 stars 3 stars 4 stars 5 stars
comments

Katawan Tab

KATAWAN
Parokya ni Edgar

johnsantos_17@yahoo.com

standard tuning: (EADGBE)

Intro: (w/distortion)

E----------
B----------
G----------
D--7-7-7-7-continuous
A--7-7-7-7-
E--5-5-5-5-

Verse:

E-----------
B-----------
G-----------
D--7777--55-
A--7777--55-
E--5555--33-

Bridge:
"Mahilig kami sa magaganda..."

E---------------------
B---------------------
G-9-7--9-7--9-7---5---
D-9-7--9-7--9-7---5-5-
A-7-5--7-5--7-5---3-5-
E-------------------3-

Adlib:
"lala lalala...."

E-------------
B-------------
G--777--10\77-
D--777--10\77-
A--555--8-\55-
E-------------
[ Tab from: http://www.guitartabs.cc/tabs/p/parokya_ni_edgar/katawan_tab.html ]
2nd Verse:

E-----------
B-----------
G-----------
D--7777--55-
A--7777--55-
E--5555--33-

Adlib:

E-------------------
B----6--5----555/6--
G-5--5--4----444/5--
D-5--3--2----222/3--play 2x
A-3------------------
E-------------------

Coda:

"katawan katawan katawan...o katawan..."

E-------------------|-----------
B-------------------|-----------
G-55--77--99--10-10-|--10--9----
D-55--77--99--10-10-|--10--9-----
A-33--55--77--8--8--|--8---7---
E-------------------|----------

Outro:

E----------
B----------
G----------
D--7-7-7-7-continuous
A--7-7-7-7-
E--5-5-5-5-

=====()w&_17@=====
Comments