Parokya Ni Edgar - Kaleidoscope World Chords & Tabs

 

Kaleidoscope World Chords & Tabs

Parokya Ni Edgar Chords & Tabs

Version: 1 Type: Tab 1 rating
1 star 2 stars 3 stars 4 stars 5 stars
comments

Kaleidoscope World Tab

   
KALEIDOSCOPE WORLD
By Parokya ni Edgar feat. Francis M.
From Album Inuman Sessions
Tabbed by doodz

Rhythm guitar:
Intro & Verse: G-Am-Bm-C
Chorus:(Power Chords) G-D-B-C
Adlib:(Power Chords) G-D-B-C 3x
		     G-A-B-C 5x

Lead guitar:
INTRO:
|-15-15----------------------------------------------------------------------------------|
|-------------------------------------------------------12-------------------------------|
|-------12h14-12-------12-------------12-------14----------------12h14-12-12h14-------12-|
|----------------12h14----------12h14----12h14----12h14----12h14----------------14-12----|
|-------------------------12h14----------------------------------------------------------|
|----------------------------------------------------------------------------------------|


|-------------------------15/17-15----10/12-|
|-------------------12-15----------12-------|
|-------12h14-------------------------------|
|-12h14-------12h14-------------------------|
|-------------------------------------------|
|-------------------------------------------|


VERSE:
So many faces...	Some are mad...
|-3--5--7--8--5h7--------3--5--7--8--7h10-7---|
|-3--5--7--8------5------3--5--7--8---------8-|
|-4--5--7--8-------------4--5--7--8-----------|
|---------------------------------------------|
|---------------------------------------------|
|---------------------------------------------|
(Repeat 'til PreChorus)

CHORUS:
|-----------------------------------------|
|-----------------------------------------|
|-----------------------------------------|
|----7--4--5------7--4--5------7--5--5--5-|
|-5--5--2--3---5--5--2--3---5--5--3--3--3-|
|-3------------3------------3-------------|
  G  D  Bm C   G  D  Bm C   G  D  C  C  C

INTRO 2nd VERSE:

|---------------------------------------------------------------------------------15-10h12-|
|-------------------------12-13-15-17---------------------------------12-13-15-17----------|
|-------12-------14-------------------12-12---------12-------14----------------------------|
|-12/14----12/14----12/14---------------------12/14----12/14----12/14----------------------|
|------------------------------------------------------------------------------------------|
|------------------------------------------------------------------------------------------|

(DO VERSE TABS)

ADLIB:
|-10h12-10-------------------------------------------------------------------------|
|----------12-12h15-12-------------------------------------------------------------|
|----------------------14-12-12h14-11h12-------------------14/16-14-12-12h14----12-|
|----------------------------------------12/14-12------12h14-----------------14----|
|-------------------------------------------------12h14----------------------------|
|----------------------------------------------------------------------------------|

|-10h12-10----------------------------------------------------------------------------|
|----------12-12h15-12----------------------------------------------------------------|
|----------------------14-12-12h14-11h12-------------------14/16-14-12-17-16-14-12-14-|
|----------------------------------------12/14-------12h14----------------------------|
|----------------------------------------------12h14----------------------------------|
|-------------------------------------------------------------------------------------|
[ Tab from: http://www.guitartabs.cc/tabs/p/parokya_ni_edgar/kaleidoscope_world_tab.html ]
|----------------------------------------|  |-----------------------------|
|-17-15----------------------------------|  |--------------------8---8-10-|
|-------16-14----------------------------|  |------------7---7-9---9------|
|-------------17-16-14-12-------------12-|  |----5-7-5-9---9--------------|
|-------------------------------12-14----|  |--7--------------------------|
|-------------------------12-14----------|  |-----------------------------|

|-15h17-15-------------------------------------------------------------------------------|
|----------17-15h17-15-------------------------------------------15----------------------|
|----------------------16-14-12-16-14-12-14/16-14-12-14-16-14-12----17-16-14-------------|
|----------------------------------------------------------------------------17-16-14-12-|
|----------------------------------------------------------------------------------------|
|----------------------------------------------------------------------------------------|

(Rhythm guitar fades)
(Rhythm guitar joins Lead guitar)

(Lead Guitar/Guitar 1)
A)
|-------------------------------------------------15----------------|
|----------15-15-15----------15-15-15----------17----15-13-12h13-12-|
|-12-12-12----------12-12-12----------12-12-12----------------------|
|-------------------------------------------------------------------|
|-------------------------------------------------------------------|
|-------------------------------------------------------------------|

|-------------------------------------------------15----------------|
|----------15-15-15----------15-15-15----------17----15-13-12h13-12-|
|-12-12-12----------12-12-12----------12-12-12----------------------|
|-------------------------------------------------------------------|
|-------------------------------------------------------------------|
|-------------------------------------------------------------------|

B)
|----------15--------------15--------------15--------------|
|-15-13-12--------15-13-12--------15-13-12-------15^-13-12-|
|-------------12--------------12--------------12-----------|
|----------------------------------------------------------|
|----------------------------------------------------------|
|----------------------------------------------------------|

|----------15--------------15--------------15--------------|
|-15-13-12--------15-13-12--------15-13-12-------15^-13-12-|
|-------------12--------------12--------------12-----------|
|----------------------------------------------------------|
|----------------------------------------------------------|
|----------------------------------------------------------|

(Rhythm Guitar/Guitar 2)
A)
|--------------------------------------------------|
|-------8-8-8-------10-10-10-------12-12-10-8h10-8-|
|-7-7-7-------7-7-7----------7-7-7-----------------|
|--------------------------------------------------|
|--------------------------------------------------|
|--------------------------------------------------|

|--------------------------------------------------|
|-------8-8-8-------10-10-10-------12-12-10-8h10-8-|
|-7-7-7-------7-7-7----------7-7-7-----------------|
|--------------------------------------------------|
|--------------------------------------------------|
|--------------------------------------------------|

B)
|--------------------------------------------------|
|-8-7-8-10---8-7-8-10---8-7-8-10---10/12-10-8h10-8-|
|----------7----------7----------7-----------------|
|--------------------------------------------------|
|--------------------------------------------------|
|--------------------------------------------------|

|--------------------------------------------------|
|-8-7-8-10---8-7-8-10---8-7-8-10---10/12-10-8h10-8-|
|----------7----------7----------7-----------------|
|--------------------------------------------------|
|--------------------------------------------------|
|--------------------------------------------------|

(Do Chorus Tabs)

---END---
Comments