Parokya Ni Edgar - Iwanan Mo Na Sya Chords & Tabs

 

Iwanan Mo Na Sya Chords & Tabs

Parokya Ni Edgar Chords & Tabs

Version: 1 Type: Tab 0 ratings
1 star 2 stars 3 stars 4 stars 5 stars
comments

Iwanan Mo Na Sya Tab

IWANAN MO NA SYA
Parokya ni Edgar

johnsantos_17@yahoo.com

standard tuning: (EADGBE)

Intro:

E----4--2--0--------4\3\2--0--|---------
B-2--5--3--0-----2--5\6\3--0--|---------
G-2--4--2--1-----2--4\3\2--1--|---------
D-2--6--4--2-----2--6\5\4--2--|---------
A-0--4--2--2-----0--4\3\2--2--|-2-0-2-0-
E----------0---------------0--|---------

Verse:

E----4--2--0-	    
B-2--5--3--0- 	    
G-2--4--2--1-	    
D-2--6--4--2-play 4x
A-0--4--2--2-
E----------0-

Pre-chorus:

E-2--4---2--2--0-------
B-2--5---2--3--0-------
G-2--4---2--2--1-------
D-0--6---0--4--2-------
A----4------2--2-----
E--------------0---

Chorus:
[ Tab from: http://www.guitartabs.cc/tabs/p/parokya_ni_edgar/iwanan_mo_na_sya_tab.html ]
E----4--2--0-	    --2--4--2--4--2--0-	    
B-2--5--3--0- 	    --2--5--2--5--3--0-
G-2--4--2--1-	    --2--4--2--4--2--1-
D-2--6--4--2-	    --0--6--0--6--4--2-
A-0--4--2--2-play 2x-----4-----4--2--2-
E----------0-	    -----------------0-

Adlib:

E----4--2--0--------4\3\2--0--|---------
B-2--5--3--0-----2--5\6\3--0--|---------
G-2--4--2--1-----2--4\3\2--1--|---------
D-2--6--4--2-----2--6\5\4--2--|---------
A-0--4--2--2-----0--4\3\2--2--|-2-0-2-0-
E----------0---------------0--|---------

Refrain:

E-2--4--2--4-|-2--4--2--0-0--
B-2--5--2--5-|-2--5--3--0-0--
G-2--4--2--4-|-2--4--2--2-1--
D-0--6--0--6-|-0--6--4--2-2--
A----4-----4-|----4--2--2-2--
E------------|----------0-0--

=====()w&_17=====
Comments