Parokya Ni Edgar - Harana Chords & Tabs

 

Harana Chords & Tabs

Parokya Ni Edgar Chords & Tabs

Version: 5 Type: Tab 0 ratings
1 star 2 stars 3 stars 4 stars 5 stars
comments

Harana Tab

-----------------------------------------------------------------
               "Harana" - Parokya Ni Edgar 
                 (original by Rey Valera)

http://www.lyricsdownload.com/parokya-ni-edgar-harana-lyrics.html
-----------------------------------------------------------------

Tabber: Justin RiRaY
Email: Pakman7JR@hotmail.com
Tuning: eBGDAE



     INTRO / BREAK

E|--3---3--|
A|--3---3--|
D|--0---0--|
G|--0---2--|
B|--2---3--|
e|--3------|


     VERSE
[ Tab from: http://www.guitartabs.cc/tabs/p/parokya_ni_edgar/harana_tab_ver_5.html ]
E|--3------3-----2------------0---2--0--3---|
A|--3------3-----3---0---0----1---3--1--3---|
D|--0------0-----4---1---1----2---2--2--2---|
G|--0------2-----4---2---0----2------2------|
B|--2------3---------2---2------------------|
e|--3---------------------------------------|


     CHORUS

E|--0----2---0---2--3---1----0---2---0---2------0---2-|
A|--1----3---1---3--3---0----1---3---1---3------1---3-|
D|--0----4---2---2--0---0----2---2---2---2--1---2---2-|
G|--2----4---2---0--0---0----2---0---2---0--2---2---0-|
B|--3---------------2---2-------------------2---------|
e|------------------3---3-----------------------------|
Comments