Parokya Ni Edgar - Harana Chords & Tabs

 

Harana Chords & Tabs

Parokya Ni Edgar Chords & Tabs

Version: 3 Type: Tab 0 ratings
1 star 2 stars 3 stars 4 stars 5 stars
comments

Harana Tab

   
Artist: Parokya ni Edgar
song tittle: Harana
tabbed by: "shinta" (jamir@dbzgtlegacy.com)


Hey guys I am pretty sure this is exact but don't take it out on me if
I am wrong I am only human. This is how i play it in my own style so try it and
see what u think.

I will dedicate this tablature to my B.R.O.T.H.E.R.S (Yhanz, Benz, Joel, Ronald
aka "DIABLO", Jeffrey B. Enrico T. Ohms, Marlon aka "RAMBO")
(the B.R.A.G.J.E.R.S namely Bernard, Romeo, Abdel(thats me) Gregmar, Joel,
Edward, Robinson, & Saison)
(and to all my GIRL FRIENDS )
Hope you enjoy this tablature!!
This is my second time to submitt a tab here in "ULTIMATE-GUITAR"...
HERE IT GOES...

Tao po... good evening puwede po bang magharana
H I N D E ! ! !

INTRO G C G C (4x)

       G            C           G            C
e|-----3-------|-----------|----3------|--------------|
B|-------2-----|----3------|------2----|----3---------|
G|-----0-------|------2----|----0------|------2-------|
D|-----0-------|----0------|----0------|----0---------| >>>>> strum
A|-----3-------|----3------|----3------|----3---------|
E|-----3-------|----3------|----3------|----3---------|

       G            C           G            C
e|-----3-------|-----------|----3------|--------------|
B|-------2-----|----3------|------2----|----3---------|
G|-----0-------|------2----|----0------|------2-------|
D|-----0-------|----0------|----0------|----0---------| >>>>> strum
A|-----3-------|----3------|----3------|----3---------|
E|-----3-------|----3------|----3------|----3---------|

(I)
[ Tab from: http://www.guitartabs.cc/tabs/p/parokya_ni_edgar/harana_tab_ver_3.html ]
G       C        Bm Esus E Am
Uso pa ba ang harana
          Bm       Am Dsus D
Marahil ikaw ay nagtataka
G        C           Bm Esus E Am
Sino ba tong mukhang gago
Nagkandarapa sa pagkanta
            Bm      Am Dsus D
At nasisintunado sa kaba


(II)

G           C         Bm Esus E Am
Maron pang dalang mga rosas
        Bm    Am       Dsus D
Suot na may maong na kupas
G          C         Bm Esus E Am
At nariyan pa ang barkada
Nakaporma't nakabarong
           Bm
Sa awitin daig pang 
      Am            Dsus D
Minus one at sing-along


(CHORUS)

         CM7
Puno ang langit ng bituin
         Bm
At kay lamig pa ng hangin
     Am           D          G     G7
Sa iyong tingin ako'y nababaliw, giliw
      CM7
At sa awitin kong ito
      Bm
Sana'y maibigan mo
 Am         D              Esus E
Ibubuhus ko ang buong puso ko
   Am               D
Sa isang munting harana
        G C G C
Para sayo


(III)

G            C          Bm Esus E Am 
Hindi ba't parang isang sine
        Bm         Am   Dsus D
isang pelikulang romantiko
G           C                Bm Esus E Am
hindi ba't ikaw ang bidang artista
At ako ang iyong leading man
                Bm             Am        Dsus D
Sa istoryang nagwawakas sa pag ibig na wagas

(REPEAT CHORUS)


OUTRO G C G C (4x) G



OK thats it... sana magustuhan niyo ito.... P>E>A>C>E :p
info: any comments/suggestions e-mail me my address is seen above
      or text me @ this #0920-2555952 kung may kailangan kayo
      please text me puwede niyo akong maging kaibigan...
Comments