Parokya Ni Edgar - Harana Chords & Tabs

 

Harana Chords & Tabs

Parokya Ni Edgar Chords & Tabs

Version: 1 Type: Tab 0 ratings
1 star 2 stars 3 stars 4 stars 5 stars
comments

Harana Tab

                        PAROKYA NI EDGAR TABS
                               HARANA         
                         TAB BY:BRIAN ENDERES

   i do not know the name of the chords so i didnt write it down.

     TAKE NOTE:
     you will have to find out how many times you strum the chords...the chords is already in order
     so it wont be that hard.





|---3-----3-----
|---3-----3-----
|---0-----0-----
|---0-----2-----
|---2-----3-----
|---3-----------
(PLAY THESE TWO FOR THE BEGINING OF THE SONG)
[ Tab from: http://www.guitartabs.cc/tabs/p/parokya_ni_edgar/harana_tab.html ]
----3------3-----2------------0----2---3-----------------------
----3------3-----3---0---0----1----3---3-----------------------
----0------0-----4---1---1----2----2---2-----------------------
----0------2-----4---2---0----2--------------------------------
----2------3---------2---2-------------------------------------
----3----------------------------------------------------------
(play this part when he starts to sing..)

(chorus)
--0-----2---0----3-----1-----0-----2-----0---------0----2---
--1-----3---1----3-----0-----1-----3-----1---------1----3---
--0-----4---2----0-----0-----2-----2-----2----1----2----2---
--2-----4---2----0-----0-----2-----0-----2----2----2----0---
--3--------------2-----2----------------------2-------------
-----------------3-----3------------------------------------
(after playing chorus play the two chords at the begining)
Comments