Parokya Ni Edgar - Harana Syllabication Tab Chords & Tabs

 

Harana Syllabication Tab Chords & Tabs

Parokya Ni Edgar Chords & Tabs

Version: 1 Type: Tab 0 ratings
1 star 2 stars 3 stars 4 stars 5 stars
comments

Harana Syllabication Tab Tab

   
harana
parokya ni edgar (eric yaptangco)
buruguduy...

syllabication tab: (chorus only)
  
  puno ang langit ng bituin...
e-7-7-8-10-10-10-12-10-
b----------------------
g----------------------
d----------------------
a----------------------
e----------------------

  at kay lamig pa ng hangin...
e-7-7--8-10--10-10-8-7-
b----------------------
g----------------------
d----------------------
a----------------------
e----------------------

  sayong tingin ako'y nababaliw, giliw..at sa...
e-3-3--5-5--7-7--5-3--5-5s7--8-8s10--8-7-
b----------------------------------------
g----------------------------------------
d----------------------------------------
a----------------------------------------
e----------------------------------------
[ Tab from: http://www.guitartabs.cc/tabs/p/parokya_ni_edgar/harana_syllabication_tab_tab.html ]
  awitin kong ito, sana'y maibigan mo...
e-8-10-10-10-12-10--14-15-14-10-10-8-7-
b--------------------------------------
g--------------------------------------
d--------------------------------------
a--------------------------------------
e--------------------------------------

  ibubuhos ko ang buong puso ko...
e-3-3--5-5--7-7--5-5--3-5-7-
b---------------------------
g---------------------------
d---------------------------
a---------------------------
e---------------------------

  sa isang munting harana...
e-2-2-2--3-3--5-5s7-5-
b---------------------
g---------------------
d---------------------
a---------------------
e---------------------

  para sa'yo!
e-3-3-3h5-3-
b-----------
g-----------
d-----------
a-----------
e-----------

Legend:
h - hammer on
s - slide to

that's all!

sub.by:
Eron Reyes
ejreyes37@yahoo.com
Comments