Parokya Ni Edgar - Halaga Chords & Tabs

 

Halaga Chords & Tabs

Parokya Ni Edgar Chords & Tabs

Version: 9 Type: Tab 0 ratings
1 star 2 stars 3 stars 4 stars 5 stars
comments

Halaga Tab

HALAGA SOLO
by Parokya ni Edgar
Transcribed by K. Arceo
Standard Tuning

Guitar 1 is heard on the right speaker
Guitar 2 is heard on the left 

SOLO
Guitar 2
E|-----------------------------------------------------------------------|
B|--/10-10-10-10-8-7-8~---7-8-/10~---8-7--------7------------------------|
G|---------------------------------------9^11-----9^11-7---7-------------|
D|-------------------------------------------------------9---------------|
A|-----------------------------------------------------------------------|
E|-----------------------------------------------------------------------|

E|----------------17-----------------------------------------------------|
B|--------15-17^19--17^19r---17^19-15-17-15-14---------------------------|
G|--14/16--------------------------------------/11-11-11-11-9-7-9-7-5-4--|
D|-----------------------------------------------------------------------|
A|-----------------------------------------------------------------------|
E|-----------------------------------------------------------------------|


[ Tab from: http://www.guitartabs.cc/tabs/p/parokya_ni_edgar/halaga_tab_ver_9.html ]
BRIDGE
Guitar 1
E|-----------------------------------------------------------------------|
B|-----------------------------------------------------------------------|
G|----------------------/4-6--6/7--7/9~---9/11~--9-11-11/12~-------9~----|
D|--5-4-----4-5-5/7~-----------------------------------------------------|
A|------5~---------------------------------------------------------------|
E|-----------------------------------------------------------------------|
Guitar 2
E|-----------------------------------------------------------------------|
B|-----------------------------------------------------------------------|
G|-----------------------------------------------------------------------|
D|-----------------------------------------------------------------------|
A|-------------------7/9-9-10-/12-12/14~----12~----------10~----9/-7~----|
E|-----------------------------------------------------------------------|


Guitar 1
D|-----------------------------------------------------------------------|
A|-----------------------------------------------------------------------|
E|-------6-7-7/9~---7-6--------------------------------------------------|
D|--/7~-------------------7~---4-5---------------------------------------|
A|-----------------------------------------------------------------------|
E|---------------------------------5~------------------------------------|
Guitar 2
E|-----------------------------------------------------------------------|
B|-----------------------------------------------------------------------|
G|-----------------------------------------------------------------------|
D|--/7~--4-5--------4-5-5/7~----/9--11-/12-------------------------------|
A|-------------5~--------------------------------------------------------|
E|-----------------------------------------------------------------------|


Guitar 1
E|-----------------------------------------------------------------------|
B|-----------------------------------------------------------------------|
G|-----------------------------------------------------------------------|
D|--/5--5--5--5--4--5----------------------------------------------------|
A|---------------------5~-----------4--5---------------------------------|
E|----------------------------------------7~--------5~-------------------|
Guitar 2
E|--------------------------------------------------14^15r14^15r14~------|
B|-----------------12-15-15-15-15--14-15^17r15---14----------------------|
G|-/12-12-12-12-14-------------------------------------------------------|
D|-----------------------------------------------------------------------|
A|-----------------------------------------------------------------------|
E|-----------------------------------------------------------------------|
Comments