Parokya Ni Edgar - Halaga Chords & Tabs

 

Halaga Chords & Tabs

Parokya Ni Edgar Chords & Tabs

Version: 8 Type: Tab 0 ratings
1 star 2 stars 3 stars 4 stars 5 stars
comments

Halaga Tab

   
song: halaga
artist: parokya ni edgar
composer: chito miranda
tabbed by: Eron Reyes
e-mail me: ejreyes37@yahoo.com

Intro: (rhythm)
D G Bm A (2x)

(lead)

e-------0-2-3-2-0-2-----
b-----3-------------3---
g---2-----------------2-
d-0---------------------
a-----------------------
e-----------------------

e-------5-3-2-2h3-2---------------
b-1s3-3-------------3-3s5-3-2-2h3-
g---------------------------------
d---------------------------------
a---------------------------------
e---------------------------------

e-----0-2-3-2-0-2-----
b---3-------------3---
g-2-----------------2-
d---------------------
a---------------------
e---------------------

e-------5-3-2-2h3-2----------------
b-1s3-3-------------3-3s5-3-2-2h3b-
g----------------------------------
d----------------------------------
a----------------------------------
e----------------------------------


D A Bm G
 umiiyak ka na naman...
D Bm A G
 sa problema na iyong pinapasan...
D A Bm G
 may kwento kang pandrama na naman...
D Bm A G
 ang pagtiyaga mo dyan sa boyfriend mong tanga...

CHORUS:
D G Bm A
 sa libu-libong pagkakataon...

(then repeat intro)
[ Tab from: http://www.guitartabs.cc/tabs/p/parokya_ni_edgar/halaga_tab_ver_8.html ]
D A Bm G
 hindi na dapat pag-usapan pa...
D Bm A G
 sa mga payo kong 'di mo pinapansin...
D A Bm G
 ayoko nang isipin pa...
D Bm A G
 na lalake na magmamahal sa'yo...
(repeat chorus)

SOLO TAB:

e----------------------------------------------
b-10-10-10-8-7-7h8--7-8-10--8-7-5----5---6s7-5-
g----------------------------------7---5-------
d----------------------------------------------
a----------------------------------------------
e----------------------------------------------

e-------------17-------------------------
b-------14-16----17-15-17-15-14-15-14-12-
g-12-14----------------------------------
d----------------------------------------
a----------------------------------------
e----------------------------------------

e--------------------------------
b-11-11-11-11-11-9-7-7h9--7-6-4b-
g--------------------------------
d--------------------------------
a--------------------------------
e--------------------------------

BRIDGE:
D Bm A G
 minsan hindi ko maintindihan
D Bm G A
 parang ang buhay natin ay napagtitripan
D Bm A G
 medyo malabo yata ang mundo
D Bm G A
 binabasura ng iba ang syang pinapangarap ko
(repeat chorus)
(repeat intro)

END!
Comments