Parokya Ni Edgar - Halaga Chords & Tabs

 

Halaga Chords & Tabs

Parokya Ni Edgar Chords & Tabs

Version: 3 Type: Tab 0 ratings
1 star 2 stars 3 stars 4 stars 5 stars
comments

Halaga Tab

   
Halaga

Band: Parokya ni Edgar 
Album: Gulong itlog Gulong 
Tabbed by Jeffrey Hernandez

This is a easy song to tab.  Some people helped a little with the solo. I know the minor lead in the last verse is incomplete so you guys can just find it out by yourself. Enjoy.

Intro (effect: distortion 2gtr)
 
E------------0-2-3-2-0-2-----------------------4s5—3-2-3-2----------------------
B----3-----3------------------3------------------3-----------------3----3s5—3-2-3
G-------2------------------------2----------2s4----------------------2---------------
D---------------------------------------------------------------------------------------
A---------------------------------------------------------------------------------------
E---------------------------------------------------------------------------------------

E------------------2-3-2-0-2----------------------
B----------3—5----------------------3s5—3-2-3
G----2--4--------------------------2--------------
D---------------------------------------------------
A---------------------------------------------------
E---------------------------------------------------
Gtr2 Background lead (effect: distortion)

E------------------2-3-2-0-2------------------------------0-2-3-2-0-2--------
B------------3-5-----------------------3s5—3-2-3----3-----------------3----
G-----2—4-------------------------2----------------2-----------------------2-
D--------------------------------------------------------------------------------
A--------------------------------------------------------------------------------
E---------------------------------------------------------------------------------

E-------------4s5—3-2-3-2--------------------
B----------3-------------------3----3s5—3-2-3
G-----2s4------------------------2--------------
D-------------------------------------------------
A-------------------------------------------------
E-------------------------------------------------

Verse 1:
[ Tab from: http://www.guitartabs.cc/tabs/p/parokya_ni_edgar/halaga_tab_ver_3.html ]
Umiiyak ka na naman   ‘langya talaga wala ka bang ibang alam
Namumugtong mga mata Kailan pa ba ikaw magsasawa
Sa problema na iyong pinapasan Hstid sa iyo ng BF hindi mo maintindihan
May kwento kang pangdrama na naman Parang pan-TV na walang katapusan
Hanggang kailan ka ba ganyan Hindi mo ba alam na walang pupuntahan 
Ang pagtiyaga mo diyan sa BF mong tanga Na wala ng ginawa kundi ang paluhain ka





Chorus: 

Sa libo-libung pagkakataon na tayo’y nagkasama Iilang ulit palang kitang nakitang masaya
Naiinis akong isipin na ginaganyan kanya Siguro ay hindi niya lang alam ang iyong tunay na halaga

(repeat intro)
Verse 2:

Hindi na dapat pag-usapan pa Napapagod na rin ako sa aking kakasalita 
Hindi ka rin naman nakkikinig kahit sobrang pagod na ang aking bibig 
Sa mga payo kong di mo pinapansin Akala mo’y nakikinig di rin naman tatanggapin
Ayo ko ng isipin pa Di ko alam ba’t di mo makayanan na iwanan siya 
Ang dami-dami naming diyang iba Wag kang mangangambang baka wala ka ng ibang Makita
Na lalaki na magmamahal sa ‘yo At hinding hindi niya sasayangin ang pag-ibig mo 
(repeat chorus)

Solo (effect: distortion)

E---------------------------------------------------------------------------------------------17----
B-----8s10-10-10-10—8-7-8---8-7-8s10----8-7-----7------------------------15-17b---17b
G-------------------------------------------------------9b-----9b-7---7----14s16---------------
D---------------------------------------------------------------------9-----------------------------
A---------------------------------------------------------------------------------------------------
E---------------------------------------------------------------------------------------------------
 
E-------------------------------------------------------------
B----17-15-17b-15-14------------------------------------
G---------------------------9s11-11-11-11-9-7-9—7-6-4
D-------------------------------------------------------------
A-------------------------------------------------------------
E--------------------------------------------------------------

Verse 3: Chords bm-d-a  last line chords g-d-bm-a
					Minor lead(effect: distortion)
Minsan hindi ko maintindihan		e---------------------------------------------------
					B--------------------------------------------------
					G-----4s6—6-7—7s9---9-7---7-5-5-5-5-5s7
					D--------------------------------------------------
					A--------------------------------------------------
					E---------------------------------------------------
Parang ang buhay natin ay napagtitripan Medyo Malabo yata ang mundo 
Binabasura ng iba ang siyang pinapangarap ko 
(repeat chorus)
(repeat intro)
Comments