Parokya Ni Edgar - Halaga Chords & Tabs

 

Halaga Chords & Tabs

Parokya Ni Edgar Chords & Tabs

Version: 11 Type: Tab 0 ratings
1 star 2 stars 3 stars 4 stars 5 stars
comments

Halaga Tab

HALAGA
(PAROKYA NI EDGAR)
ando972003@yahoo.com

1|-------10s12-14s15-14s12-14s10-12-|
2|-10s12----------------------------|
3|----------------------------------|
4|----------------------------------|
5|----------------------------------|
6|----------------------------------|
[ Tab from: http://www.guitartabs.cc/tabs/p/parokya_ni_edgar/halaga_tab_ver_11.html ]
1|-------17p15-14-15-14----------------------|
2|-12s15----------------15----15s17-15s14-15-|
3|-------------------------16----------------|
4|-------------------------------------------|
5|-------------------------------------------|
6|-------------------------------------------|


heheheheheeheheh!
1st tab ko tah pero wak nio mamaliitin
(pamana pa ito ng master ko)
pakirate naman po plsss
sya nga pala salamat sa master ko na si Dennis Fajardo!(Idol ko yan eh)
Comments